Blue October - Calling You Chords & Tabs

 

Calling You Chords & Tabs

Blue October Chords & Tabs

Version: 1 Type: Tab 0 ratings
1 star 2 stars 3 stars 4 stars 5 stars
comments

Calling You Tab

   
This song is pretty cool. And it's also pretty easy to play. So here
it goes. Have fun and keep on rockin

 ********************************************************************

There's something that I can't quite, explain.
-----------------------------------------------------------
-----------------------------------------3-----------------
-----------------------------------------------------------
-----------------------------------------------------------
-----------------------------------------5~----------------
-----------------------------------------------------------

........I'm so in love with you.

  G                C                F        G

--3----------------3----------------1--------3-------------
--3----------------5----------------1--------3-------------
--4----------------5----------------2--------4-------------
--5----------------5----------------3--------5-------------
--5----------------3----------------3--------5-------------
--3----------------3----------------1--------3-------------

And if I said it a hundred times before...Expect a thousand more.

  C                 F               G                 C

--3-----------------1---------------3-----------------3-----
--5-----------------1---------------3-----------------5-----
--5-----------------2---------------4-----------------5-----
--5-----------------3---------------5-----------------5-----
--3-----------------3---------------5-----------------3-----
--3-----------------1---------------3-----------------3-----

You'll never take that away.

     F                   G

-----1-------------------3-------------------------------
-----1-------------------3-------------------------------
-----2-------------------4-------------------------------
-----3-------------------5-------------------------------
-----3-------------------5-------------------------------
-----1-------------------3-------------------------------


Well expect me to be


   F
Calling you to see
            G
If you're okay when I'm not around,
   F
Asking if you love me
   G                           
I love the way you make it sound
   F
Calling you to see
   G
Do I try too hard to make you smile,
       G
To make us smile...


               C            F
I will keep calling you to see
              G
If you're sleeping or you're dreaming
                                        C
If you're dreaming, are you dreaming of me?
           F                   G
I can't believe you actually picked me

Verse 2
[ Tab from: http://www.guitartabs.cc/tabs/b/blue_october/calling_you_tab.html ]
I thought that the world had lost its sway
(It's so hard sometimes)
Then I fell in love with you
(Then came you)
And you took that away
(It's not so difficult, the world is not so difficult)

You take away the old, show me the new
And I feel like I can fly when I stand next to you
So while I'm on this phone
A hundred miles from home
I'll take the words you gave
And send them back to you

I only want to see
If you're okay when I’m not around,
Asking if you love me
I love the way you make it sound
Calling you to see
Do I try too hard to make you smile,
To make us smile....


I will keep calling you to see
If you're sleeping or you're dreaming
If you're dreaming, are you dreaming of me?
I can't believe you actually picked me...

Solo

--------------------------13-13-13-13-13-13-13-13-------------
--13-13-13-13-13-13-13-13-------------------------------------
--------------------------------------------------------------
--------------------------------------------------------------
--------------------------------------------------------------
--------------------------------------------------------------


--------------------------------------------------------------
--12-12-12-12-12-12-12-12-8-8-8-6-6-6-5-----------------------
--------------------------------------------------------------
--------------------------------------------------------------
--------------------------------------------------------------
--------------------------------------------------------------

--------------------------13-13-13-13-13-13-13-13-------------
--13-13-13-13-13-13-13-13-------------------------------------
--------------------------------------------------------------
--------------------------------------------------------------
--------------------------------------------------------------
--------------------------------------------------------------


--------------------------------------------------------------
--12-12-12-12-12-12-12-12-8-8-8-6-6-6-5-3-3-3-3---------------
--------------------------------------------------------------
--------------------------------------------------------------
--------------------------------------------------------------
--------------------------------------------------------------

(x2)
               C            F
I will keep calling you to see
              G
If you're sleeping or you're dreaming
                                        C
If you're dreaming, are you dreaming of me?
           F                   G
I can't believe you actually picked me

Oh Oh Oh.....(Same 3 chords fading out)


 If you have any questions or comments e-mail me at 
              Buttlerocket@aol.com

Comments