Blue October - Angel Chords & Tabs

 

Angel Chords & Tabs

Blue October Chords & Tabs

Version: 1 Type: Bass Tab 0 ratings
1 star 2 stars 3 stars 4 stars 5 stars
comments

Angel Bass Tab

Angel - Blue October
Bass Tab

-Scarymnstrs1991=


Intro

|---------------------------------------------------------------|
|---------------------------------------------------------------|
|---------------2>>----------------------2>>--------------------|
|--0>>---3>>-------2>>---0>>-----3>>--------2--2--2>>-----------|

[ Tab from: http://www.guitartabs.cc/tabs/b/blue_october/angel_btab.html ]
Verse
|----------------------------------------------------------|
|----------------------------------------------------------|
|--5--5--5>-5--5-5--5>-(x2)--------------------------------|
|-----------------------------2--2--2>-2--2-2--2>-(x2)-----|

|-------------------------------------------------------------|
|-------------------------------------------------------------|
|--2--2--2>-2--2-2--2>-(x2)---------------------------3-4-----|
|----------------------------3--3--3>-3--3-3--3>-(x2)---------|



The song switches up in the middle, but it's these same riffs, It's pretty easy to figure out.
Comments