Blue October - Amazing Chords & Tabs

 

Amazing Chords & Tabs

Blue October Chords & Tabs

Version: 2 Type: Tab 0 ratings
1 star 2 stars 3 stars 4 stars 5 stars
comments

Amazing Tab

Blue October
Amazing
Argue With A Tree

Capo 2

E---------------2---------------------------------0-----------------
B-------2---3------------2---3---2--------0---1-----------1h3----1-0
G-----4---4---4--------4---4---4--------2---2---2-------0------0----
D---4----------------4----------------2---------------2-------------
A-2----------------2----------------0---------------3---------------
E-------------------------------------------------------------------

E----------------------0------0------------------------------
B-----1-0------------3----3---------0-1------------0-1-------
G----------2---0---2--------2------------2---2----------2---0
D---0--------0---0----------------2--------2-----2--------2--
A-------------------------------0--------------0-------------
E-3----------------------------------------------------------

E----------------------0------0------------------------------
B-------0------------3----3---------0-1------------0-1-------
G-----2----2---0---2--------2------------2---2----------2---0
D---0--------0---0----------------2--------2-----2--------2--
A-------------------------------0--------------0-------------
E-3----------------------------------------------------------

E----------------------0---2---0------------------------------
B-------0------------3---------------0-1------------0-1-------
G-----2----2---0---2-----2---2------------2---2----------2---0
D---0--------0---0-----------------2--------2-----2--------2--
A--------------------------------0--------------0-------------
E-3-----------------------------------------------------------

E----------------------0------0------------------------------
B-------0------------3----3---------0-1------------0-1-------
G-----2----2---0---2--------2------------2---2----------2---0
D---0--------0---0----------------2--------2-----2--------2--
A-------------------------------0--------------0-------------
E-3----------------------------------------------------------

E----------------------0------0------------------------------
B-------0------------3----3---------0-1------------0-1-------
G-----2----2---0---2--------2------------2---2----------2---0
D---0--------0---0----------------2--------2-----2--------2--
A-------------------------------0--------------0-------------
E-3----------------------------------------------------------
How am I supposed to breath?

E----------------------0------0------------------------------
B-------0------------3----3---------0-1------------0-1-------
G-----2----2---0---2--------2------------2---2----------2---0
D---0--------0---0----------------2--------2-----2--------2--
A-------------------------------0--------------0-------------
E-3----------------------------------------------------------
I try to relax. I touch your still frame.

E----------------------0---2---0------------------------------
B-------0------------3---------------0-1------------0-1-------
G-----2----2---0---2-----2---2------------2---2----------2---0
D---0--------0---0-----------------2--------2-----2--------2--
A--------------------------------0--------------0-------------
E-3-----------------------------------------------------------
So I can watch you closer and study the ways I believe

E----------------------2h3-2--0h2p0------------------------------
B-------0------------3------------------0-1------------0-1-------
G-----2----2---0---2-------------------------2---2----------2---0
D---0--------0---0--------------------2--------2-----2--------2--
A-----------------------------------0--------------0-------------
E-3--------------------------------------------------------------
I belong to you.. To you...

E----------------------0---2---0-------3------2------0-----------
B-------0------------3---------------1----1------1------1---1h3-1
G-----2----2---0---2-----2---2--------------2------2------0------
D---0--------0---0-----------------2-----------------------------
A--------------------------------0-------------------------------
E-3--------------------------------------------------------------
So I... I scratch at your waistline, your dull hair.

E----------------------0------0-----------0--------
B-0-----0------------3----3-----------0-1---1-0-1-0
G-----2----2---0---2--------2-----2----------------
D---0--------0---0------------------2--------------
A-------------------------------0------------------
E-3------------------------------------------------
I dig up the thought of how your eyes glow.

E----------------------0---2---3--------2------0------------
B-------0------------3---------------1----1------1---1h3-1-0
G-----2----2---0---2-----2---2--------------2------2--------
D---0--------0---0-----------------2------------------------
A--------------------------------0--------------------------
E-3---------------------------------------------------------
So I make you my religion, my collision, my escape goat.

E----------------------0------0----------0---------------
B-------0------------3----3---------0-1-----1--0--1--0--1
G-----2----2---0---2--------2----------------------------
D---0--------0---0----------------2----------------------
A-------------------------------0------------------------
E-3------------------------------------------------------
So have I found your secret weak spot baby?

E-----------3---------|-----------2---------|
B-------3-4---4-3-4-3-|-------2-3---3-2-3-2-|
G-----5---------------|-----4---------------|
D---5-----------------|---4-----------------|
A-3-------------------|-2-------------------|
E---------(2x)--------|---------(2x)--------|
Can you pretend I'm amazing? I can pretend I'm amazing.
Instead of what we both know. Instead of what we both know.

E-----------3---------|-----------2-----------------------0-----------------
B-------3-4---4-3-4-3-|-------2-3---3-2-3-2-------0---1-----------1h3----1-0
G-----5---------------|-----4-------------------2---2---2-------0------0----
D---5-----------------|---4-------------------2---------------2-------------
A-3-------------------|-2-------------------0---------------3---------------
E---------(2x)--------|-----------------------------------------------------
I'll cut to the punch line baby. Can we pretend I'm amazing?
Instead of what we both know. Instead of what we both know.
[ Tab from: http://www.guitartabs.cc/tabs/b/blue_october/amazing_tab_ver_2.html ]
E----------------------0------0------------------------------
B-----1-0------------3----3---------0-1------------0-1-------
G----------2---0---2--------2------------2---2----------2---0
D---0--------0---0----------------2--------2-----2--------2--
A-------------------------------0--------------0-------------
E-3----------------------------------------------------------
And now our history is for sale.

E----------------------0------3----2-----0----------
B-------0------------3---3----1--1---1-----1---1h3-1
G-----2----2---0---2-------2--2--------2-----0------
D---0--------0---0----------------------------------
A---------------------------------------------------
E-3-------------------------------------------------
And for that, I apologize.

E----------------------0---2---0------------------------------
B-----1-0------------3---------------0-1------------0-1-------
G----------2---0---2-----2---2------------2---2----------2---0
D---0--------0---0-----------------2--------2-----2--------2--
A--------------------------------0--------------0-------------
E-3-----------------------------------------------------------
You see you're my only know how.

E----------------------0-------------------------------------
B-------0------------3----3---0-----0-1------------0-1-------
G-----2----2---0---2--------2------------2---2----------2---0
D---0--------0---0----------------2--------2-----2--------2--
A-------------------------------0--------------0-------------
E-3----------------------------------------------------------
And that's the study of when I believed I belonged to you. And that was just to you.

E----------------------0---2---3--------2------0------------
B-------0------------3---------------1----1------1---1h3-1-0
G-----2----2---0---2-----2---2--------------2------2--------
D---0--------0---0-----------------2------------------------
A--------------------------------0--------------------------
E-3---------------------------------------------------------
You see I've made into something more delicious, my sweet ghost.

E----------------------0------0----------0---------------
B-------0------------3----3---------0-1-----1--0--1--0--1
G-----2----2---0---2--------2----------------------------
D---0--------0---0----------------2----------------------
A-------------------------------0------------------------
E-3------------------------------------------------------
So have I found your secret weak spot baby?

E-----------3---------|-----------2---------|
B-------3-4---4-3-4-3-|-------2-3---3-2-3-2-|
G-----5---------------|-----4---------------|
D---5-----------------|---4-----------------|
A-3-------------------|-2-------------------|
E---------(2x)--------|---------(2x)--------|
Can you pretend I'm amazing? I can pretend I'm amazing.
Instead of what we both know. Instead of what we both know.


E-----------3---------|-----------2-----------------------0-----------------
B-------3-4---4-3-4-3-|-------2-3---3-2-3-2-------0---1-----------1h3----1-0
G-----5---------------|-----4-------------------2---2---2-------0------0----
D---5-----------------|---4-------------------2---------------2-------------
A-3-------------------|-2-------------------0---------------3---------------
E---------(2x)--------|-----------------------------------------------------
I'll cut to the punch line baby. Can we pretend I'm amazing?
Instead of what we both know. We said...

E----------------------0------0------------------------------
B-------0------------3----3---------0-1------------0-1-------
G-----2----2---0---2--------2------------2---2----------2---0
D---0--------0---0----------------2--------2-----2--------2--
A-------------------------------0--------------0-------------
E-3----------------------------------------------------------
'Goodbye' ... We said

E----------------------0------0------------------------3-----3
B-------0------------3----3---------0-1------------0h1---1----
G-----2----2---0---2--------2------------2---2-------------2--
D---0--------0---0----------------2--------2-----2------------
A-------------------------------0--------------0--------------
E-3-----------------------------------------------------------
'Goodbye'

E----------------------2h3-2-0------------------------------
B-------0------------3-------------0-1------------0-1-------
G-----2----2---0---2--------------------2---2----------2---0
D---0--------0---0---------------2--------2-----2--------2--
A------------------------------0--------------0-------------
E-3---------------------------------------------------------

E----------------------0------0------------------------3-----3
B-------0------------3----3---------0-1------------0h1---1----
G-----2----2---0---2--------2------------2---2-------------2--
D---0--------0---0----------------2--------2-----2------------
A-------------------------------0--------------0--------------
E-3-----------------------------------------------------------

Guitar 2 comes in

E----------------------0------0------------------------------
B-------0------------3----3---------0-1------------0-1-------
G-----2----2---0---2--------2------------2---2----------2---0
D---0--------0---0----------------2--------2-----2--------2--
A-------------------------------0--------------0-------------
E-3----------------------------------------------------------

E----------------------0------0------------------------3----
B-------0------------3----3---------0-1------------0h1---1--
G-----2----2---0---2--------2------------2---2-------------2
D---0--------0---0----------------2--------2-----2----------
A-------------------------------0--------------0------------
E-3---------------------------------------------------------

E----------------------0---2---0------------------------------
B-------0------------3---------------0-1------------0-1-------
G-----2----2---0---2-----2---2------------2---2----------2---0
D---0--------0---0-----------------2--------2-----2--------2--
A--------------------------------0--------------0-------------
E-3-----------------------------------------------------------

E----------------------0------0-------------------------
B-------0------------3----3---------0-1------------0-1--
G-----2----2---0---2--------2------------2---2---------2
D---0--------0---0----------------2--------2-----2------
A-------------------------------0--------------0--------
E-3-----------------------------------------------------



Guitar 2
E-------------|----------------|--------------|-------------|---------------------|
B-------------|----------------|--------------|-------------|---------------------|
G-9---7--6--4-|-9---7--6--4----|--9---7--6--4-|-4--9---7--4-|-9---7--6--4---------|
D-x---x--x--x-|-x---x--x--x--7-|--x---x--x--x-|-x--x---x--x-|-x---x--x--x--7--7/9-|
A-7---5--4--2-|-7---5--4--2--x-|--7---5--4--2-|-2--7---5--2-|-7---5--4--2--x--x/x-|
e-------------|--------------5-|--------------|-------------|--------------5--5/7-|

From here it runs immediately into the song Weight of the World.

Questions?
Email at cory.roesch@yahoo.com
Comments