Blue October - 21st Chords & Tabs

 

21st Chords & Tabs

Blue October Chords & Tabs

Version: 1 Type: Bass Tab 0 ratings
1 star 2 stars 3 stars 4 stars 5 stars
comments

21st Bass Tab

Blue October
The 21st
The Answers

Standard Tuning

This is a rather easy one and I'm surprised to see that no one has uploaded a tab yet, 
but all in all here is mine.  I think it's dead on and I hope that someone somewhere 
finds it useful.

Intro/Verse/Outro
G--------------------------------------------------]
D--------------------------------------------------]
A-3-3--3-3-3--3-3-3--3-3-2--0-0--0-0-0--0-0-0--0-0-]
E--------------------------------------------------]
[ Tab from: http://www.guitartabs.cc/tabs/b/blue_october/21st_btab.html ]
G--------------------------------------------------]
D--------------------------------------------------]
A-------------------------------3-3--3-3-3--3-3*---]
E-3-0-0--0-0-0--0-0-0--0-0-3-3-------------------3-]

Chorus
G--------------------------------------------------]
D--------------------------------------------------]
A--------------------------------------------------]
E-3--3-3--3-3-1--1-1--1-1-5--5-5--5-5-0--0-0--0-0--]

That's it.  I told you it was rather easy, so get to playing it and enjoy.  It's a nice 
cool slow song.  Peace out and peace off!
Comments