Blue October - 18th Floor Balcony Chords & Tabs

 

18th Floor Balcony Chords & Tabs

Blue October Chords & Tabs

Version: 1 Type: Tab 0 ratings
1 star 2 stars 3 stars 4 stars 5 stars
comments

18th Floor Balcony Tab

After watching the DVD I noticed that CB playes this song in standard tuning with a capo
on the 2nd fret.  However, I cannot find my capo so here is the tuning that I picked it
out in (DADGBE).  This should be accurate since I watched him play it with thw capo and
the note are relative.

Verse
---0-------0--------0----------------------|
---------------------------------2----3----|
---2-------2--------2------------4----4----|
---2-------2--------2------------4----4----|
---0-----------------------------2----2----|
-----------4--------0----------------------|

*all of these chords are fingerpicked and arpegiated, so if you know the song you should
be able to figure it out with the chords provided.
[ Tab from: http://www.guitartabs.cc/tabs/b/blue_october/18th_floor_balcony_tab.html ]
Chorus
---0-------0-----------------------|
---3-------3------------2-----3----|
---2-------2------------4-----4----|
---0--------------------4-----4----|
---0-------4------------2-----2----|
---0-------------------------------|

oh and here is a half arse version of the violin part at the end

------------------------------------------------------------------------|
------------------------------------------------------------------------|
-------6-7-6-------6-7-6-------6-7-6-7/9-7-6-7/9-7-6--------------------|
----7---------7--7-------7---7------------------------9/7---------------|
------------------------------------------------------------------------|
------------------------------------------------------------------------|

Thats pretty much all there is too it.  My band covers this song acoustic live to other
Blue October fans and have been told it sounds just like it.
Comments