Blue October - 18th Floor Balcony Chords & Tabs

 

18th Floor Balcony Chords & Tabs

Blue October Chords & Tabs

Version: 1 Type: Bass Tab 0 ratings
1 star 2 stars 3 stars 4 stars 5 stars
comments

18th Floor Balcony Bass Tab

Blue October

18th floor balcony (Live)


Tabbed By : CoconutWylly

CoconutWylly@gmail.com


G|xx-------------------------------------------xx-----7---------7------------|
D|xx-------------------------------------------xx-------9--7--------9--------|
A|xx--5-------------5--------------------5-----xx---9---------9--------------|
E|xx-9---9--7-7----9-----9--7--7--5--2------7--xx----------------------5--2--|

G|---------------------------------------------------------------------------|
D|---------------------------------------------------------------------------|
A|---5-------------5--------5--------------5--------------5--------------5---|
E|-------7--5--2-------7---9-----9--7--7--9-----9--7--7--9-----9--7--7--9----|

G|---------------------------------------------------------------------------|
D|---------------------------------------------------------------------------|
A|---------------------5--5--------5--7---------5--7-------5-----------------|
E|---9--7--7-9-5----9--------7--9--------7--89--------5--2----7--5--2--------|
[ Tab from: http://www.guitartabs.cc/tabs/b/blue_october/18th_floor_balcony_btab.html ]
G|---------------------------------------------------------------------------|
D|---------------------------------------------------------------------------|
A|---5-------5---------------5--------------------5--5--------5--5-----------|
E|------7---9----9--7----7--9-----9--7--7---5--9--------5--9-------5--2------|

G|---------------------------------------------------------------------------|
D|---------------------------------------------------------------------------|
A|---5------------5-------------5-------------5-------------5----------------|
E|------7---5--2------7--5--2------7--5--2--------7--5--2-------7--5--2------|

G|---------------------------------------------------------------------------|
D|---------------------------------------------------------------------------|
A|---5-----------------------------------------------------------------------|
E|------7--7--5--------------------------------------------------------------|



This is my own interpretation of the bass line of that song for your pleasure only.

Please respect the artists and the song writer and by their CD

| x  Mute note
Comments