Blue Man Group - Tv Song Chords & Tabs

 

Tv Song Chords & Tabs

Blue Man Group Chords & Tabs

Version: 1 Type: Tab 1 rating
1 star 2 stars 3 stars 4 stars 5 stars
comments

Tv Song Tab

Blue Man Group - TV Song

Tabbed by: Hendrik Schicke
h.schicke@gmx.de

Standard tuning


Riff 1

  
e-------------------------------------------------------------------------------
H-------------------------------------------------------------------------------
G-------------------------------------------------------------------------------
D-------------------------------------------------------------------------------
A-------------------------------------------------------------------------------
E-7---11-9-7-10-7-7--3-7-5--12-5-11--11-9-7-10-7-7--3-2-0------------

[ Tab from: http://www.guitartabs.cc/tabs/b/blue_man_group/tv_song_tab.html ]
e-------------------------------------------------------------------------------
H-------------------------------------------------------------------------------
G-------------------------------------------------------------------------------
D-------------------------------------------------------------------------------
A-------------------------------------------------------------------------------
E-----11-9-7-10-7-7--3-7-5--12-5-11--11-9-7-10-7-7--3-2-0--9-5-7----
 
Riff 2

                     |->Repeat Riff 1 part 1

e-----------------------------------
H-----------------------------------
G-----------------------------------
D--5--7--9--5--7--X--9--5--7----
A--5--7--9--5--7--X--9--5--7----
E--3--5--7--3--5--X--7--3--5----


Comments