Blue Man Group - The Current Chords & Tabs

 

The Current Chords & Tabs

Blue Man Group Chords & Tabs

Version: 1 Type: Tab 0 ratings
1 star 2 stars 3 stars 4 stars 5 stars
comments

The Current Tab

This is standard tuning so no fancy crap!  

-Riff 1               
E---------------------------------------------
B---------------------------------------------
G---------------------------------------------
D---------------------------------------------
A---------------------------------------------
E-0---2---2---2---3------0---2---2---2---3---0


After that guitar goes in distortion, 

-Riff 2
[ Tab from: http://www.guitartabs.cc/tabs/b/blue_man_group/the_current_tab.html ]
E---------------------------------------------
B---------------------------------------------
G---------------------------------------------
D---------------------------------------------
A-2---4---4---4---5------2---4---4---4---5---2
E-0---2---2---2---3------0---2---2---2---3---0

after 4 times play this part
-Riff 3 

E-----------------
B-----------------
G-----------------
D-2-2-2--4-4-4----
A-0-0-0--2-2-2----
E-----------------
			
after that back to number 2,
and then after a while back to 3,
after playing the song about 2 times full, you can impress people :P
cause with 3 riffs the biggest retard is able to play it.

Greetz,
The-X

Comments