Blue Cheer - Summertime Blues Chords & Tabs

 

Summertime Blues Chords & Tabs

Blue Cheer Chords & Tabs

Version: 1 Type: Bass Tab 0 ratings
1 star 2 stars 3 stars 4 stars 5 stars
comments

Summertime Blues Bass Tab

Summertime Blues - Blue Cheer

 intro/interlude (x2)  verse (x2)
G|-------3------------|-----------------------------------------------------|
D|--3-055--0335-------|------------------------------------------123--555---|
E|55------------0335--|1333-1333-1333-1333-1333-1333-1333-1333--3--------3--|
E|--------------------|-----------------------------------------------------|

  chorus (x2)            after "well I didn't go to work I told my boss I was sick" 
G|-----------------------|-53-5-35-53-5-35|
D|3333333333333333-------|---5-5-----5-5--|
E|----------------3------|3-------3-------|
E|-----------------------|----------------|
[ Tab from: http://www.guitartabs.cc/tabs/b/blue_cheer/summertime_blues_btab.html ]
  solo
G|------------------------------------1-------1---1---1---1---1---------------------------
D|1-------1-------1---1---1---1----111-111-111-111-111-111-111-1111-------1-------1---1---
A|-1111111-1111111-111-111-111-1113-------3------------------------1111111-1111111-111-111
E|----------------------------------------------------------------------------------------

----------------3-------------------3-----------------------------------------------|
1---1------3-055--0335---------3-055--0335--------2---3---4---5---6---7---8---9-----|
-111-111-55------------0335--55------------0335-------------------------------------|
------------------------------------------------------------------------------------|

tabbed by Achilles (blue_sincere@hotmail.com)

Comments