Blue Boy Bites Back - Pinky Swear Chords & Tabs

 

Pinky Swear Chords & Tabs

Blue Boy Bites Back Chords & Tabs

Version: 1 Type: Tab 0 ratings
1 star 2 stars 3 stars 4 stars 5 stars
comments

Pinky Swear Tab

   
 Tabbed by: Dant
 Email: Dant.Brokencyde@yahoo.com


 Hi :D
 Share ko lang tong tabs na to :)
 Matrabaho pala gumawa nito hehe
 Kayo na bahala humusga :)) .

 Btw Shoutout Kay Lito :)
 Haha


 Rock On Opm :)


 - Blue Boy Bites Back
 - Pinky Swear



 Intro: A - E - A7 - D
 A - E - D


 --------5--7-7-5-5--------------------------------------------|
 ----9-55-55-5---5---------------------------------------------|
 --------------------------------------------------------------|
 --------------------------------------------------------------|
 --------------------------------------------------------------|
 --------------------------------------------------------------|

 ----9----10----13--13-10--10----------------------------------|
 -----1010--1010--10-----10------------------------------------|
 --------------------------------------------------------------|
 --------------------------------------------------------------|
 --------------------------------------------------------------|
 --------------------------------------------------------------|
[ Tab from: http://www.guitartabs.cc/tabs/b/blue_boy_bites_back/pinky_swear_tab.html ]
 ---9-9-7-7-5-4-4----------10-9-13-10-9-7-5--------------------|
 ----5---5-5-5-5-----------------------------------------------|
 --------------------------------------------------------------|
 --------------------------------------------------------------|
 --------------------------------------------------------------|
 --------------------------------------------------------------|


 2nd  A - E - A7 - D
 A - E - D


 --------------------------------------------------------------|
 --------------------------------------------------------------|
 ------------------------9-7-6h7-------------------------------|
 -----2/4-2---9b-7-6-6-7---------7-----------------------------|
 ---2----------------------------------------------------------|
 --------------------------------------------------------------|

 -----------------------------------------------11-10-9h10-----|
 ------------------------------9h10-11-10-9-9-10------------10-|
 ----------7h9-9/11-9------9-11--------------------------------|
 ------7h9-----------------------------------------------------|
 --7h9---------------------------------------------------------|
 --------------------------------------------------------------|
Comments