Bloodsimple - What If I Lost It Chords & Tabs

 

What If I Lost It Chords & Tabs

Bloodsimple Chords & Tabs

Version: 2 Type: Tab 0 ratings
1 star 2 stars 3 stars 4 stars 5 stars
comments

What If I Lost It Tab

   
---------------------------------------------------------------------
		WHAT IF I LOST IT - Bloodsimple
---------------------------------------------------------------------
I laid out the entire song with the exception of a few back ground 
guitar parts. And if you look at the third and fourth bars you will 
notice that the other part is nothing more than a slight modification 
of that. I couldn't justify throwing in two more bars just to spell 
it out. If you can't figure out the rest of the song from what I have 
given you I encourage more practice on your part. Enjoy.

Tabbed by: Zakk Holstlaw		
Email: zakk_holstlaw@yahoo.com

Tuning: A#-F-A#-D#-G-C

e|-------------------------------|--------------------------------|
B|-------------------------------|--------------------------------|
G|-------------------------------|--------------------------------|
D|---------8----------7----------|---------8----------7-----------|
A|-5/7---7----5/7---7----7/8-0-7-|-5/7---7----5/7---7----7/8-0-7--|
E|-5/7-0-7----5/7-0-7----7/8-0-7-|-5/7-0-7----5/7-0-7----7/8-0-7--|

e|-------------------------------|--------------------------------|
B|-------------------------------|--------------------------------|
G|-------------------------------|--------------------------------|
D|---------8----------7----------|---------8----------7-------(7)-|
A|-5/7-0-7----5/7-0-7----7/8-0-7-|-5/7-0-7----5/7-0-7-------------|
E|-5/7-0-7----5/7-0-7----7/8-0-7-|-5/7-0-7----5/7-0-7-------------|
  Gtr.1

e|-------------------------------|--------------------------------|
B|-------------------------------|--------------------------------|
G|-6-------------------------(6)-|-7--------------------------(7)-|
D|-------------------------------|--------------------------------|
A|-------------------------------|--------------------------------|
E|-------------------------------|--------------------------------|
                                       |-grad. bend- 1/2 step -|
e|-------------------------------|--------------------------------|
B|-------------------------------|--------------------------------|
G|-5-------------------------(5)-|-4---(4)--------------------(4)-|
D|-------------------------------|--------------------------------|
A|-------------------------------|--------------------------------|
E|-------------------------------|--------------------------------|
  Gtr.2

 INTRO

  p.m. through out
e|--------------------------------|
B|--------------------------------|
G|--------------------------------| (play this bar 3x)
D|--------------------------------|
A|-7-7-5-7-----7-7-5-7-----7-8-7--|
E|-7-7-5-7-----7-7-5-7-----7-8-7--|






  p.m.----------------|
e|--------------------------------|
B|--------------------------------|
G|--------------------------------|
D|--------------------------------|
A|-7-7-5-7-----7-7-5-7-----7-8-7--|
E|-7-7-5-7-----7-7-5-7-----7-8-7--|
  VERSE 
[ Tab from: http://www.guitartabs.cc/tabs/b/bloodsimple/what_if_i_lost_it_tab_ver_2.html ]
e|----------------------------------------|
B|----------------------------------------|
G|----------------------------------------| (x3)
D|------------8-------------7-------------|
A|-5-/-7-0-7-----5-/-7-0-7-----7-/-8-0-7--|
E|-5-/-7-0-7-----5-/-7-0-7-----7-/-8-0-7--|
                                            
e|----------------------------------------|  
B|----------------------------------------|  
G|----------------------------------------|  
D|------------8-------------7-------------|  
A|-5-/-7-0-7-----5-/-7-0-7-----7-/-8-8-8--|  
E|-5-/-7-0-7-----5-/-7-0-7-----7-/-8-8-8--|  

   p.m.-------------------------------------------------------|
e|---------------------------------------------------------------------|
B|---------------------------------------------------------------------|
G|---------------------------------------------------------------------|
D|-----------------5-5-5-5-5-5-5-5-------------------------------------|
A|-0-0-0-0-0-0-0-0-3-3-3-3-3-3-3-3-5-5-5-5-5-5-5-5-3-3-3-3-3-3-3/5-5\3-|
E|-0-0-0-0-0-0-0-0-----------------5-5-5-5-5-5-5-5-3-3-3-3-3-3-3/5-5\3-|

  p.m.--------------------------------------------|
e|--------------------------------------------------  
B|--------------------------------------------------  
G|--------------------------------------------------  
D|-----------------5-5-5-5-5-5-5-5------------------  
A|-0-0-0-0-0-0-0-0-3-3-3-3-3-3-3-3-8-8-8-8-8-8-8-8--  
E|-0-0-0-0-0-0-0-0-----------------8-8-8-8-8-8-8-8--  
 
 -----------------------------|
 -----------------------------|
 --7-/-9-9-/-11-11-/12 12-/14-|
 --X---X-X---X--X---X--X---X--|
 --5-/-7-7-/-8--8-/-10-10-/12-|
 -----------------------------|
CHORUS
 
     1/2      1/2    |-1/2-|       1/2      1/2    |-1/2-|
e|-----------------------------|-----------------------------|
B|-----------------------------|-----------------------------|
G|-----------------------------|-----------------------------| (x2)
D|-----------------------------|--------------------7-7-7-7--|
A|-----------------------------|-----------------------------|
E|-7-0-7--0-7-0-7--0--7-7-7-7--|-7-0-7--0-7-0-7--0-----------|








                                    1/2      1/2
e|-----------------------------|-----------------------------|
B|-----------------------------|-----------------------------|
G|-----------------------------|-----------------------------| (x4)
D|-5---------(5)-5---------(5)-|-----------------------------|
A|-3---------(3)-3---------(5)-|-7---7----7---7-----7-8-8-8--|
E|---------------3---------(3)-|-7-0-7--0-7-0-7--0--7-8-8-8--|
  Gtr.1

      1/2      1/2                  1/2      1/2
e|-----------------------------|------------------------------|
B|-----------------------------|------------------------------|
G|-----------------------------|------------------------------|
D|-----------------------------|------------------------------|
A|-7---7----7---7-----7-8-8-8--|-7---7----7---7-----7-8-8-8---|
E|-7-0-7--0-7-0-7--0--7-8-8-8--|-7-0-7--0-7-0-7--0--7-8-8-8---|

      1/2      1/2                  1/2      1/2
e|-----------------------------|------------------------------|
B|-----------------------------|------------------------------|
G|-----------------------------|------------------------------|
D|-----------------------------|------------------------------|
A|-7---7----7---7-----7-8-8-8--|-7---7----7---7-----7-8-8-3-3-|
E|-7-0-7--0-7-0-7--0--7-8-8-8--|-7-0-7--0-7-0-7--0--7-8-8-3-3-|

 BREAKDOWN


e|-----------------------------------|
B|-----------------------------------|
G|-----5---5------------4---4--------|
D|---7---7---7-5-7----5---5---5-0-5--|
A|-7----------------3----------------|
E|-----------------------------------|
  Gtr. 2 last two measures of breakdown


| /  slide up
| \  slide down
| h  hammer-on
| p  pull-off
| ~  vibrato
| +  harmonic
| x  Mute note
| 1  bend a whole step
| 1/2 bend a half step
========================================================================
Comments