Bloodshot - Flawless Chords & Tabs

 

Flawless Chords & Tabs

Bloodshot Chords & Tabs

Version: 1 Type: Tab 0 ratings
1 star 2 stars 3 stars 4 stars 5 stars
comments

Flawless Tab

BloodShot - Flawless




INTRO + Verse. Acoustic
1.)------------------------------------------------------------------------------------------------------------------|
2.)-------------0---------------------------------------------------------------------------------------------------|
3.)----------0-----0--------------------0--------------------------0-----------------------------------------------|
4.)-------4-----------4--------------4----4----------------0---------0--------------------0----------------0-----|  into Chorus after repeat
5.)--- 2-----------------2-------5------------5--------3------3--------3-------------2------2---------0-----0---|
6.)-0----------------------0-3-------------------3-5-----------------------5---0^3-------------0^2-------------|

[ Tab from: http://www.guitartabs.cc/tabs/b/bloodshot/flawless_tab.html ]
Chorus
1.)---------------------------------------------------------------------------------|
2.)---------------------------------------------------------------------------------|
3.)-----------------------5-------7-------4---------------------------------------|
4.)---2--22-2-2-2-------5-------7-------4---------------------------------------| Into Post Chorus
5.)---2--22-2-2-2-------3-------5-------2---------------------------------------|
6.)---0--00-0-0-0--------------------------------3--2----------------------------|
Each time with distortion. Each power chord 6-8 times each, depending on how you strum it.

Post Chorus.
1.)----------------------------------------------------------------------------------------|
2.)----------------------------------------------------------------------------------------|
3.)----------------------------------------------------------------------------------------|
4.)--------2--2--2-------2--2--2---------4--4--4-------2---2--------------------------| Back into clean Intro/Verse
5.)--------2--2--2-------3--3--3---------5--5--5-------3---3---2/3-------------------|
6.)-------(0)-----------------------------------------------------------------------------|
This a little trickier if you dont know the song, but if you've heard it you know how the strumming is done.
Each chord bout 4 or 5 times



any corrections or sugestions jdplaya77@yahoo.com
Comments