Bloodkin - Wet Trombone Blues Chords & Tabs

 

Wet Trombone Blues Chords & Tabs

Bloodkin Chords & Tabs

Version: 1 Type: Tab 0 ratings
1 star 2 stars 3 stars 4 stars 5 stars
comments

Wet Trombone Blues Tab

   
BLOODKIN 
"WET TRUMBONE BLUES"

yo guys, this is a great band! they are new and i heard them playin 
at a concert! they rock !! they write songs for widespread panic too!!!! 
well here is the tab. you gotta buy one of their cd's, these guys rock! 
standard e tuning
[ Tab from: http://www.guitartabs.cc/tabs/b/bloodkin/wet_trombone_blues_tab.html ]
  Am         ?   Am   ?   Am     ?  Am
--0--0--0----0---0----0----0-----0---0-0-0------------------
--1--1--1----0---1----3----1-----0---1-1-1------------------
--2--2--2----2---2----2----2-----2---2-2-2------------------
--2--2--2----2---2----2----2-----2---2-2-2------------------
------------------------------------------------------------
------------------------------------------------------------


-0--0--0----0---0--0--0--0----0-0-0-----------------------------------
-1--1--1----0---1--3--1--0----1-1-1-----------------------------------
-0--0--0----0---0--0--0--0----0-0-0-----------------------------------
-2--2--2----2---2--2--2--2----2-2-2-----------------------------------
-2--2--2----2---2--2--2--2----2-2-2-----------------------------------
-0--0--0----0---0--0--0--o----0-0-0-----------------------------------

play this the whole song, i am still workin on the chorus====
Comments