Bloodhound Gang - Three Point One Four Chords & Tabs

 

Three Point One Four Chords & Tabs

Bloodhound Gang Chords & Tabs

Version: 7 Type: Tab 0 ratings
1 star 2 stars 3 stars 4 stars 5 stars
comments

Three Point One Four Tab

Bloodhound Gang - Three Point One Four.
Tabbed by Nathan Sessions - rubberdude69@hotmail.com.
  
Guitar 1
e|2-2-0--02-2-02302-2-0--02-2-02302-2-0--02-2-02302|
B|-3-3-22--3-3-----3-3-22--3-3-----3-3-22--3-3-----|
G|-------------------------------------------------|
D|-------------------------------------------------|
A|-------------------------------------------------|
E|-------------------------------------------------|

e|2-2-0--022225555---------------------------------|
B|-3-3-22------------------------------------------|
G|-------------------------------------------------|
D|-------------------------------------------------|
A|-------------------------------------------------|
E|-------------------------------------------------|
Guitar 1 & 2
e|---------------------------------------------|
B|---------------------------------------------|
G|7-7-7---------6-4-4-4---------6--------------|
D|7-7-7-4-7-7-7-6-4-4-4-4-7-7-7-6--------------|repeat
A|5-5-5-4-7-7-7-4-2-2-2-4-7-7-7-4--------------|
E|------2-5-5-5---------2-5-5-5----------------|
[ Tab from: http://www.guitartabs.cc/tabs/b/bloodhound_gang/three_point_one_four_tab_ver_7.html ]
The "I need to find a.." part
Guitar 1 & 2
e|-------------------------------------------------|
B|-------------------------------------------------|
G|7-7-7-7---------4-4-4-4--------------------------|
D|7-7-7-7-7-7-7-7-4-4-4-4-7-7-7-7------------------|2x
B|5-5-5-5-7-7-7-7-2-2-2-2-7-7-7-7------------------|
E|--------5-5-5-5---------5-5-5-5------------------|
Guitar 1 & 2
 |--PM--|
e|-------------------------------------------------|
B|-------------------------------------------------|
G|7-7-7-7---------4-4-4-4--------------------------|
D|7-7-7-7-7-7-7-7-4-4-4-4-7-7-7-7------------------|1x
B|5-5-5-5-7-7-7-7-2-2-2-2-7-7-7-7------------------|
E|--------5-5-5-5---------5-5-5-5------------------|

e|-------------------------------------------------|
B|-------------------------------------------------|
G|7-7-7-7---------4-4-4-4--------------------------|
D|7-7-7-7-7-7-7-7-4-4-4-4-7-7-7-7------------------|1x
B|5-5-5-5-7-7-7-7-2-2-2-2-7-7-7-7------------------|
E|--------5-5-5-5---------5-5-5-5------------------|

e|---------------------------------------------|
B|---------------------------------------------|
G|7-7-7---------6-4-4-4---------6--------------|
D|7-7-7-4-7-7-7-6-4-4-4-4-7-7-7-6--------------|repeat
A|5-5-5-4-7-7-7-4-2-2-2-4-7-7-7-4--------------|
E|------2-5-5-5---------2-5-5-5----------------|

After this just play the course and have the other guitar in the background playing the intro.

Well thats about it. Any Suggestions/Comments/Changes e-mail me at.rubberdude69@hotmail.com!!! Thanx and Enjoy 
:: Ultimate Guitar Archive :: 
http://www.ultimate-guitar.com 

Comments