Bloodhound Gang - Three Point One Four Chords & Tabs

 

Three Point One Four Chords & Tabs

Bloodhound Gang Chords & Tabs

Version: 2 Type: Tab 0 ratings
1 star 2 stars 3 stars 4 stars 5 stars
comments

Three Point One Four Tab

this is the right version to the bloodhoundgang's "three point one
four" standard tunning.....have fun....email me at mug30241@hotmail.com

           intro-repeat 3 times
[-2---2---0-----0-2--2---0-2-3-0-]
[---3---3---2-------3--3---------]
[-------------2------------------]
[--------------------------------]
[--------------------------------]
[--------------------------------]    intro and figure 2 have no
                                      distortion...nice and clean 
          figure 2                   

[-2--2---0----0----2222--5555-]
[---3--3---2------------------]
[-----------2-----------------]
[-----------------------------]
[-----------------------------]
[-----------------------------]


        
  preverse-heavy distortion
       repeat twice

[---------------------------------]
[---------------------------------]
[-777-----222--6--444-----222---6-]
[-777--4--222--6--444--4--222---6-]
[-555--4--000--4--222--4--000---4-]
[------2---------------2----------]


        verse-clean,no distortion
[ Tab from: http://www.guitartabs.cc/tabs/b/bloodhound_gang/three_point_one_four_tab_ver_2.html ]
      repeat 2x       repeat 2x          repeat 2x        repeat 2x
[--x---x---x---x---][-x---x---x---x--]-x---x---x---x--]-x---x---x---x---]
[--x---x---x---x---][-x---x---x---x--]-x---x---x---x--]-x---x---x---x---]
[--x-7-x-7-x-7-x-7-][-x-2-x-2-x-2-x-2]-x-4-x-4-x-4-x-4]-x-2-x-2-x-2-x-2-]
[--x-7-x-7-x-7-x-7-][-x-2-x-2-x-2-x-2]-x-4-x-4-x-4-x-4]-x-2-x-2-x-2-x-2-]
[--x-5-x-5-x-5-x-5-][-x-0-x-0-x-0-x-0]-x-2-x-2-x-2-x-2]-x-0-x-0-x-0-x-0-]
[--x---x---x---x---][-x---x---x---x--]-x---x---x---x--]-x---x---x---x---]



---------------------------------------------------------------------]
---------------3333--------------------------------------------------]
-----------2222-----------------2222-------------4444---------2222---]
-0000-4444------------------2222--------1111-4444---------4444----4--]
-------------------0000-4444--------2222--------------0000-----------]
---------------------------------------------------------------------]


                      chorus
     2 times            it's hard to ryma a word like......
[---------------------]----------------------------------------------]
[---------------------]----------------------------------------------]
[--7777-2222-4444-2222]-7-7-7-7-7--2222-4444-2222-7777-2222-4444-2222]
[--7777-2222-4444-2222]-7-7-7-7-7--2222-4444-2222-7777-2222-4444-2222]
[--5555-0000-2222-0000]-5-5-5-5-5--0000-2222-0000-5555-0000-2222-0000]
[---------------------]----------------------------------------------]

                                      
after this comes:preverse,verse,chorus,intro and chorus,preverse and intro
Comments