Bloodhound Gang - The Ballad Of Chasey Lain Chords & Tabs

 

The Ballad Of Chasey Lain Chords & Tabs

Bloodhound Gang Chords & Tabs

Version: 9 Type: Tab

The Ballad Of Chasey Lain Tab

   
Artist/Band - Bloodhound Gang
Album - Hooray For Boobies
Song - The Ballad Of Chasey Lain


GUITAR:
======

Tuning: Standard (E A D G B E)

Intro:
E]------------------------------------------------------------|
B]------------------------------------------------------------|
G]--------------------9--9--9-9-------------------------------|
D]--11--11--11-11--9--9--9--9-9--9--7--7-7-7--9--6--6-6-6--9--|
A]--11--11--11-11--9--7--7--7-7--9--7--7-7-7--9--6--6-6-6--9--|
E]---9---9---9--9--7-------------7--5--5-5-5--7--4--4-4-4--7--|

E]-------------------------------------------------|
B]-------------------------------------------------|
G]-------------------9--9--9-9---------------------|
D]--11--11-11-11--9--9--9--9-9--9--7--7-7-7--9--6--|
A]--11--11-11-11--9--7--7--7-7--9--7--7-7-7--9--6--|
E]---9---9--9--9--7-------------7--5--5-5-5--7--4--|

Verse 1:
E]---------------------------------------------------------------------------|
B]---------------------------------------------------------------------------|
G]--------------------------9-9-9-9-9-9-9-9----------------------------------|
D]--11-11-11-11-11-11-11-11-9-9-9-9-9-9-9-9-7-7-7-7-7-7-7-7-6-6-6-6-6-6-6-6--|
A]--11-11-11-11-11-11-11-11-7-7-7-7-7-7-7-7-7-7-7-7-7-7-7-7-6-6-6-6-6-6-6-6--|
E]---9--9--9--9--9--9--9--9-----------------5-5-5-5-5-5-5-5-4-4-4-4-4-4-4-4--|

E]---------------------------------------------------------------------------|
B]---------------------------------------------------------------------------|
G]--------------------------9-9-9-9-9-9-9-9----------------------------------|
D]--11-11-11-11-11-11-11-11-9-9-9-9-9-9-9-9-7-7-7-7-7-7-7-7-6-6-6-6-6-6-6-6--|
A]--11-11-11-11-11-11-11-11-7-7-7-7-7-7-7-7-7-7-7-7-7-7-7-7-6-6-6-6-6-6-6-6--|
E]---9--9--9--9--9--9--9--9-----------------5-5-5-5-5-5-5-5-4-4-4-4-4-4-4-4--|

Chorus:
E]---------------------------------------------------------------------------|
B]---------------------------------------------------------------------------|
G]--------------------------9-9-9-9-9-9-9-9----------------------------------|
D]--11-11-11-11-11-11-11-11-9-9-9-9-9-9-9-9-7-7-7-7-7-7-7-7-6-6-6-6-6-6-6-6--|
A]--11-11-11-11-11-11-11-11-7-7-7-7-7-7-7-7-7-7-7-7-7-7-7-7-6-6-6-6-6-6-6-6--|
E]---9--9--9--9--9--9--9--9-----------------5-5-5-5-5-5-5-5-4-4-4-4-4-4-4-4--|

E]-----------------------------|
B]-----------------------------|
G]--------------------------9--|
D]--11-11-11-11-11-11-11-11-9--|
A]--11-11-11-11-11-11-11-11-7--|
E]---9--9--9--9--9--9--9--9----|

Interlude:
E]----------------------|
B]----------------------|
G]----------------------|
D]--11--11-11-11--9--7--|
A]--11--11-11-11--9--7--|
E]---9---9--9--9--7--5--|

Verse 2:
E]---------------------------------------------------------------------------|
B]---------------------------------------------------------------------------|
G]--------------------------9-9-9-9-9-9-9-9----------------------------------|
D]--11-11-11-11-11-11-11-11-9-9-9-9-9-9-9-9-7-7-7-7-7-7-7-7-6-6-6-6-6-6-6-6--|
A]--11-11-11-11-11-11-11-11-7-7-7-7-7-7-7-7-7-7-7-7-7-7-7-7-6-6-6-6-6-6-6-6--|
E]---9--9--9--9--9--9--9--9-----------------5-5-5-5-5-5-5-5-4-4-4-4-4-4-4-4--|

E]---------------------------------------------------------------------------|
B]---------------------------------------------------------------------------|
G]--------------------------9-9-9-9-9-9-9-9----------------------------------|
D]--11-11-11-11-11-11-11-11-9-9-9-9-9-9-9-9-7-7-7-7-7-7-7-7-6-6-6-6-6-6-6-6--|
A]--11-11-11-11-11-11-11-11-7-7-7-7-7-7-7-7-7-7-7-7-7-7-7-7-6-6-6-6-6-6-6-6--|
E]---9--9--9--9--9--9--9--9-----------------5-5-5-5-5-5-5-5-4-4-4-4-4-4-4-4--|

Chorus:
E]---------------------------------------------------------------------------|
B]---------------------------------------------------------------------------|
G]--------------------------9-9-9-9-9-9-9-9----------------------------------|
D]--11-11-11-11-11-11-11-11-9-9-9-9-9-9-9-9-7-7-7-7-7-7-7-7-6-6-6-6-6-6-6-6--|
A]--11-11-11-11-11-11-11-11-7-7-7-7-7-7-7-7-7-7-7-7-7-7-7-7-6-6-6-6-6-6-6-6--|
E]---9--9--9--9--9--9--9--9-----------------5-5-5-5-5-5-5-5-4-4-4-4-4-4-4-4--|

E]-----------------------------|
B]-----------------------------|
G]--------------------------9--|
D]--11-11-11-11-11-11-11-11-9--|
A]--11-11-11-11-11-11-11-11-7--|
E]---9--9--9--9--9--9--9--9----|
[ Tab from: http://www.guitartabs.cc/tabs/b/bloodhound_gang/the_ballad_of_chasey_lain_tab_ver_9.html ]
Interlude:
E]----------------------|
B]----------------------|
G]----------------------|
D]--11--11-11-11--9--7--|
A]--11--11-11-11--9--7--|
E]---9---9--9--9--7--5--|

Verse 2:
E]---------------------------------------------------------------------------|
B]---------------------------------------------------------------------------|
G]--------------------------9-9-9-9-9-9-9-9----------------------------------|
D]--11-11-11-11-11-11-11-11-9-9-9-9-9-9-9-9-7-7-7-7-7-7-7-7-6-6-6-6-6-6-6-6--|
A]--11-11-11-11-11-11-11-11-7-7-7-7-7-7-7-7-7-7-7-7-7-7-7-7-6-6-6-6-6-6-6-6--|
E]---9--9--9--9--9--9--9--9-----------------5-5-5-5-5-5-5-5-4-4-4-4-4-4-4-4--|

E]---------------------------------------------------------------------------|
B]---------------------------------------------------------------------------|
G]--------------------------9-9-9-9-9-9-9-9----------------------------------|
D]--11-11-11-11-11-11-11-11-9-9-9-9-9-9-9-9-7-7-7-7-7-7-7-7-6-6-6-6-6-6-6-6--|
A]--11-11-11-11-11-11-11-11-7-7-7-7-7-7-7-7-7-7-7-7-7-7-7-7-6-6-6-6-6-6-6-6--|
E]---9--9--9--9--9--9--9--9-----------------5-5-5-5-5-5-5-5-4-4-4-4-4-4-4-4--|

Chorus:
E]---------------------------------------------------------------------------|
B]---------------------------------------------------------------------------|
G]--------------------------9-9-9-9-9-9-9-9----------------------------------|
D]--11-11-11-11-11-11-11-11-9-9-9-9-9-9-9-9-7-7-7-7-7-7-7-7-6-6-6-6-6-6-6-6--|
A]--11-11-11-11-11-11-11-11-7-7-7-7-7-7-7-7-7-7-7-7-7-7-7-7-6-6-6-6-6-6-6-6--|
E]---9--9--9--9--9--9--9--9-----------------5-5-5-5-5-5-5-5-4-4-4-4-4-4-4-4--|

E]-----------------------------|
B]-----------------------------|
G]--------------------------9--|
D]--11-11-11-11-11-11-11-11-9--|
A]--11-11-11-11-11-11-11-11-7--|
E]---9--9--9--9--9--9--9--9----|

Interlude:
E]----------------------|
B]----------------------|
G]----------------------|
D]--11--11-11-11--9--7--|
A]--11--11-11-11--9--7--|
E]---9---9--9--9--7--5--|

Bridge:
E]-----------------------------------------------------------|
B]-----------------------------------------------------------|
G]-----------------------------------------------------------|
D]--9-9-9-9-9-9-9-9-9-9-9-9-9-9-9-9-11-11-11-11-11-11-11-11--|
A]--9-9-9-9-9-9-9-9-9-9-9-9-9-9-9-9-11-11-11-11-11-11-11-11--|
E]--7-7-7-7-7-7-7-7-7-7-7-7-7-7-7-7--9--9--9--9--9--9--9--9--|

E]---------------------------------------------------------------------------|
B]---------------------------------------------------------------------------|
G]--9-9-9-9-9-9-9-9-9-9-9-9-9-9-9-9------------------------------------------|
D]--9-9-9-9-9-9-9-9-9-9-9-9-9-9-9-9-9-9-9-9-9-9-9-9-11-11-11-11-11-11-11-11--|
A]--7-7-7-7-7-7-7-7-7-7-7-7-7-7-7-7-9-9-9-9-9-9-9-9-11-11-11-11-11-11-11-11--|
E]----------------------------------7-7-7-7-7-7-7-7--9--9--9--9--9--9--9--9--|

E]-----------------------------------------------------------|
B]-----------------------------------------------------------|
G]-----------------------------------------------------------|
D]--9-9-9-9-9-9-9-9-9-9-9-9-9-9-9-9-11-11-11-11-11-11-11-11--|
A]--9-9-9-9-9-9-9-9-9-9-9-9-9-9-9-9-11-11-11-11-11-11-11-11--|
E]--7-7-7-7-7-7-7-7-7-7-7-7-7-7-7-7--9--9--9--9--9--9--9--9--|

E]---------------------------------------------------------------------------|
B]---------------------------------------------------------------------------|
G]--9-9-9-9-9-9-9-9-9-9-9-9-9-9-9-9------------------------------------------|
D]--9-9-9-9-9-9-9-9-9-9-9-9-9-9-9-9-9-9-9-9-9-9-9-9-11-11-11-11-11-11-11-11--|
A]--7-7-7-7-7-7-7-7-7-7-7-7-7-7-7-7-9-9-9-9-9-9-9-9-11-11-11-11-11-11-11-11--|
E]----------------------------------7-7-7-7-7-7-7-7--9--9--9--9--9--9--9--9--|

Outro:
E]------------------------------------------------------------|
B]------------------------------------------------------------|
G]--------------------9--9--9-9-------------------------------|
D]--11--11--11-11--9--9--9--9-9--9--7--7-7-7--9--6--6-6-6--9--|
A]--11--11--11-11--9--7--7--7-7--9--7--7-7-7--9--6--6-6-6--9--|
E]---9---9---9--9--7-------------7--5--5-5-5--7--4--4-4-4--7--|

E]-------------------------------------------------|
B]-------------------------------------------------|
G]-------------------9--9--9-9---------------------|
D]--11--11-11-11--9--9--9--9-9--9--7--7-7-7--9--6--|
A]--11--11-11-11--9--7--7--7-7--9--7--7-7-7--9--6--|
E]---9---9--9--9--7-------------7--5--5-5-5--7--4--|

--------------------------------------------------------------------------------