Bloodhound Gang - The Ballad Of Chasey Lain Chords & Tabs

 

The Ballad Of Chasey Lain Chords & Tabs

Bloodhound Gang Chords & Tabs

Version: 6 Type: Tab 0 ratings
1 star 2 stars 3 stars 4 stars 5 stars
comments

The Ballad Of Chasey Lain Tab

---------------------------------------------------------------------------			  
The Ballad Of Chasey Lain - Bloodhound Gang
-------------------------------------------------------------------------------
Tabbed by: Tabmeister
Email: cad7@hotmail.com

Why cant anyone get this right?its a real easy tab

Tuning: Standard

 Both guitars play the same throughout

Intro:
e|------------------------|------------------------------|
B|------------------------|------------------------------|
G|------------------------|------------------------------|
D|-6--x--6--6-6-4---------|-9--x--9--9-9-----------------|
A|-4--x--4--4-4-2---------|-7--x--7--7-7------9----------|
E|------------------------|-------------------7----------|

e|-----------------------|--------------------------------|
B|-----------------------|--------------------------------|
G|-----------------------|--------------------------------|
D|-----------------------|-------------------4------------|
A|-7--x--7--7-7-9--------|-6--x--6--6-6------2------------|
E|-5--x--5--5-5-7--------|-4--x--4--4-4-------------------|

e|------------------------|------------------------------|
B|------------------------|------------------------------|
G|------------------------|------------------------------|
D|-6--x--6--6-6-4---------|-9--x--9--9-9-----------------|
A|-4--x--4--4-4-2---------|-7--x--7--7-7------9----------|
E|------------------------|-------------------7----------|

e|-----------------------|--------------------------------|
B|-----------------------|--------------------------------|
G|-----------------------|--------------------------------|
D|-----------------------|--------------------------------|
A|-7--x--7--7-7-9--------|-6------------------------------|
E|-5--x--5--5-5-7--------|-4------------------------------|

Verse:(Palm mute throughout) For all 3 verses repeat the 4 bars twice


e|--------------------------|--------------------------------|              
B|--------------------------|--------------------------------|
G|--------------------------|--------------------------------|
D|-6-6-6-6-6-6-6-6----------|-9-9-9-9-9-9-9-9----------------|
A|-4-4-4-4-4-4-4-4----------|-7-7-7-7-7-7-7-7----------------|
E|--------------------------|--------------------------------|

e|--------------------------|--------------------------------|
B|--------------------------|--------------------------------|
G|--------------------------|--------------------------------|
D|--------------------------|--------------------------------|
A|-7-7-7-7-7-7-7-7----------|-6-6-6-6-6-6-6-6----------------|
E|-5-5-5-5-5-5-5-5----------|-4-4-4-4-4-4-4-4----------------|

Chorus:

e|--------------------------|-----------------------------------|
B|--------------------------|-----------------------------------|
G|-6-6-6-6-6-6-6-6----------|-9-9-9-9-9-9-9-9-------------------|
D|--------------------------|-----------------------------------|
A|-4-4-4-4-4-4-4-4----------|-7-7-7-7-7-7-7-7-------------------|
E|--------------------------|-----------------------------------|

e|--------------------------------|---------------------------|
B|--------------------------------|---------------------------|
G|-14-14-14-14-14-14-14-14--------|-16-16-16-16-16-16-16-16---|
D|--------------------------------|---------------------------|
A|-12-12-12-12-12-12-12-12--------|-14-14-14-14-14-14-14-14---|
E|--------------------------------|---------------------------|

e|------------------------------------------|--------------|
B|-14-14-14-14-14-14-14-14------------------|--------------|
G|------------------------------------------|--------------|
D|-11-11-11-11-11-11-11-11------------------|--------------|
A|------------------------------------------|-6------------|
E|------------------------------------------|-4------------|

break thing:

e|------------------------|------------------------------|
B|------------------------|------------------------------|
G|------------------------|------------------------------|
D|-6--x--6--6-6-4---------|------------------------------|
A|-4--x--4--4-4-2---------|-6----------------------------|
E|------------------------|-4----------------------------|

Bridge :
[ Tab from: http://www.guitartabs.cc/tabs/b/bloodhound_gang/the_ballad_of_chasey_lain_tab_ver_6.html ]
e|--------------------------|------------------------------------|
B|--------------------------|------------------------------------|
G|--------------------------|------------------------------------|
D|-8-8-8-8-8-8-8-8----------|-8-8-8-8-8-8-8-8-8------------------|
A|-6-6-6-6-6-6-6-6----------|-6-6-6-6-6-6-6-6-6------------------|
E|--------------------------|------------------------------------|
PM...............................................
e|--------------------------|----------------------------|
B|--------------------------|----------------------------|
G|--------------------------|-9--------------------------|
D|-9-9-9-9-9-9-9-9----------|-9--------------------------|
A|-7-7-7-7-7-7-7-7----------|-7--------------------------|
E|--------------------------|----------------------------|
PM.................
e|--------------------------|---------------------------------|
B|--------------------------|---------------------------------|
G|--------------------------|---------------------------------|
D|-2-2-2-2-2-2-2-2----------|-2-2-2-2-2-2-2-2-----------------|
A|-2-2-2-2-2-2-2-2----------|-2-2-2-2-2-2-2-2-----------------|
E|-0-0-0-0-0-0-0-0----------|-0-0-0-0-0-0-0-0-----------------|

e|--------------------------|-----------------------------------|
B|--------------------------|-----------------------------------|
G|-4-4-4-4-4-4-4-4----------|-----------------------------------|
D|-4-4-4-4-4-4-4-4----------|-4-4-4-4-4-4-4-4-------------------|
A|-2-2-2-2-2-2-2-2----------|-4-4-4-4-4-4-4-4-------------------|
E|--------------------------|-2-2-2-2-2-2-2-2-------------------|


e|--------------------------|------------------------------------|
B|--------------------------|------------------------------------|
G|--------------------------|------------------------------------|
D|-8-8-8-8-8-8-8-8----------|-8-8-8-8-8-8-8-8-8------------------|
A|-6-6-6-6-6-6-6-6----------|-6-6-6-6-6-6-6-6-6------------------|
E|--------------------------|------------------------------------|
PM...............................................
e|--------------------------|----------------------------|
B|--------------------------|----------------------------|
G|--------------------------|-9--------------------------|
D|-9-9-9-9-9-9-9-9----------|-9--------------------------|
A|-7-7-7-7-7-7-7-7----------|-7--------------------------|
E|--------------------------|----------------------------|
PM.................

e|--------------------------|---------------------------------|
B|--------------------------|---------------------------------|
G|--------------------------|---------------------------------|
D|-2-2-2-2-2-2-2-2----------|-2-2-2-2-2-2-2-2-----------------|
A|-2-2-2-2-2-2-2-2----------|-2-2-2-2-2-2-2-2-----------------|
E|-0-0-0-0-0-0-0-0----------|-0-0-0-0-0-0-0-0-----------------|

e|--------------------------|-----------------------|
B|--------------------------|-----------------------|
G|-4-4-4-4-4-4-4-4----------|-----------------------|
D|-4-4-4-4-4-4-4-4----------|--4--------------------|
A|-2-2-2-2-2-2-2-2----------|--4--------------------|
E|--------------------------|--2--------------------|

Outro:

e|------------------------|------------------------------|
B|------------------------|------------------------------|
G|------------------------|------------------------------|
D|-6--x--6--6-6-4---------|-9--x--9--9-9-----------------|
A|-4--x--4--4-4-2---------|-7--x--7--7-7------9----------|
E|------------------------|-------------------7----------|

e|-----------------------|--------------------------------|
B|-----------------------|--------------------------------|
G|-----------------------|--------------------------------|
D|-----------------------|-------------------4------------|
A|-7--x--7--7-7-9--------|-6--x--6--6-6------2------------|
E|-5--x--5--5-5-7--------|-4--x--4--4-4-------------------|

e|------------------------|------------------------------|
B|------------------------|------------------------------|
G|------------------------|------------------------------|
D|-6--x--6--6-6-4---------|-9--x--9--9-9-----------------|
A|-4--x--4--4-4-2---------|-7--x--7--7-7------9----------|
E|------------------------|-------------------7----------|

e|-----------------------|--------------------------------|
B|-----------------------|--------------------------------|
G|-----------------------|--------------------------------|
D|-----------------------|--------------------------------|
A|-7--x--7--7-7-9--------|-6------------------------------|
E|-5--x--5--5-5-7--------|-4------------------------------|

Structure:

Intro
Verse
Chorus
Break thing
Verse
Chorus
Break thing
Verse
Chorus
Break thing
Bridge
Outro

=============================================================================
Comments