Bloodhound Gang - The Ballad Of Chasey Lain Chords & Tabs

 

The Ballad Of Chasey Lain Chords & Tabs

Bloodhound Gang Chords & Tabs

Version: 5 Type: Tab 0 ratings
1 star 2 stars 3 stars 4 stars 5 stars
comments

The Ballad Of Chasey Lain Tab

   
i can't think of any witty commentary, so I'm gonna get straight to the point.


in/outro:

e----------------------------------------------------------|
B----------------------------------------------------------|
G-6--6-6-49--9-9-47--7-7-4-------46--6-6-49--9-9-47--7-7-4-|
D-6--6-6-49--9-9-47--7-7-46--6-6-46--6-6-49--9-9-47--7-7-46|
A-4--4-4-27--7-7-25--5-5-26--6-6-24--4-4-27--7-7-25--5-5-26|
E-------------------------4--4-4--------------------------4|

verse:"dear chasey"(p.m.)

e---------------------------------|
B---------------------------------|
G-6666666699999999----------------|
D-66666666999999997777777766666666|x2
A-44444444777777777777777766666666|
E-----------------5555555544444444|

chorus:"you had a lotta"

e------------------------------------------|
B-------------------------11111111222222222|
G---------1111111122222222-----------------|
D------------------------------------------|
A-44444444---------------------------------|
E------------------------------------------|

preverse:

e----------|
B----------|
G-6--6-6-4-|
D-6--6-6-46|
A-4--4-4-26|
E---------4|
[ Tab from: http://www.guitartabs.cc/tabs/b/bloodhound_gang/the_ballad_of_chasey_lain_tab_ver_5.html ]
bridge:"p.s., mom and dad"

e--------------------------------------------------------------
B--------------------------------------------------------------
G-4444444444444444666666666----999999999999999944444444--------
D-4444444444444444666666666----99999999999999994444444444444444
A-2222222222222222444444444----77777777777777772222222244444444
E------------------------------------------------------22222222

e-------------------------------------------------------|
B-------------------------------------------------------|
G-4444444444444444666666666----999999999999999944444444-|
D-4444444444444444666666666----9999999999999999444444444|
A-2222222222222222444444444----7777777777777777222222224|
E------------------------------------------------------2|


here's the order that you play it in:

intro
verse
chorus
preverse
verse
chorus
preverse
verse
chorus
preverse
bridge
outro


|thats it! if you can play it you should feel proud, although i dont know why.

|if you have questions, comments, or need the lyrics, then e-mail me at SSK1116@aol.com

|rate this pleeeeeaaaase!!!

|ultimate guitar rocks!
Comments