Bloodhound Gang - The Ballad Of Chasey Lain Chords & Tabs

 

The Ballad Of Chasey Lain Chords & Tabs

Bloodhound Gang Chords & Tabs

Version: 4 Type: Tab 0 ratings
1 star 2 stars 3 stars 4 stars 5 stars
comments

The Ballad Of Chasey Lain Tab

This is a very simple song and is catchy when you play it.
The four basic chords are C#,E,A and G#.

Intro
e--------------------------------------------------------
b--------------------------------------------------------
g--------------------------------------------------------
d-6-6-666--9-9-999---------------------------------------
a-4-4-444--7-7-777--7-7-777--6-6-666---------------------
E-------------------5-5-555--4-4-444---------------------

Verse (and chorus)
e--------------------------------------------------------
b--------------------------------------------------------
g--------------------------------------------------------
d-66666666-99999999--------------------------------------
a-44444444-77777777-77777777-66666666--------------------
E-------------------55555555-44444444--------------------

Shortened intro between chorus and 2nd verse
e--------------------------------------------------------
b--------------------------------------------------------
g--------------------------------------------------------
d-6-6-666-9----------------------------------------------
a-4-4-444-7----------------------------------------------
E--------------------------------------------------------
[ Tab from: http://www.guitartabs.cc/tabs/b/bloodhound_gang/the_ballad_of_chasey_lain_tab_ver_4.html ]
Final Part(P.S. mom and dad this is Chasey...)
e--------------------------------------------------------
b--------------------------------------------------------
g--------------------------------------------------------
d-6666666666666666---------------------------------------
a-4444444444444444-7777777777777776----------------------
E------------------5555555555555554----------------------

You can work out how many times to play each bit through. It's so easy.
Fit the guitar parts to these lyrics. Sing along while playing the tune.

Lyrics
Dear Chasey Lain
I wrote to explain
I'm your biggest fan
I just wanted to ask
Could I eat your ass?
Write back as soon as you can

You've had a lotta dick
Had a lotta dick
I've had a lotta time
Had a lotta time
You've had a lotta dick Chasey
But you ain't had mine

Dear Chasey Lain
I wrote to complain
Ya never wrote me back
How could I ever eat
Your ass when ya treat
Your biggest fan like that?

You've had a lotta dick
Had a lotta dick
I've had a lotta time
Had a lotta time
You've had a lotta dick Chasey
But you ain't had mine

Dear Chasey Lain
I wrote to constrain
This letter is my last
As your biggest fan
I must demand
You let me eat your ass

You've had a lotta dick
Had a lotta dick
I've had a lotta time
Had a lotta time
You've had a lotta dick Chasey
But you ain't had mine

P.S.
Mom and Dad this is Chasey
Chasey this is my mom and dad
Now show 'em them titties
Now show 'em them titties
P.S.
Mom and Dad this is Chasey
Chasey this is my mom and dad
Now show 'em them titties
Now show 'em them titties
Comments