Bloodhound Gang - Mope Chords & Tabs

 

Mope Chords & Tabs

Bloodhound Gang Chords & Tabs

Version: 2 Type: Tab 0 ratings
1 star 2 stars 3 stars 4 stars 5 stars
comments

Mope Tab

bloodhound gang
mope

this song is weirdly funny so i wanted 2 tabb it but thrs not 2 much to play but neway
[ Tab from: http://www.guitartabs.cc/tabs/b/bloodhound_gang/mope_tab_ver_2.html ]
first bit of guitar (1:10)
          ~~~~~~~~~x4~~~~~~~~~~~~~~
e|-------|--------------------------| 
B|-------|--------------------------| 
G|-------|--------------------------| 
D|-3-3-3-|--2-----------------------|
A|-1-1-1-|--2-------------8-8-7-6-9-| 
E|-1-1-1-|--0-12-11-10-9------------|
 light pm
second same again (2:19)
          ~~~~~~~~~x4~~~~~~~~~~~~~~
e|-------|--------------------------| 
B|-------|--------------------------| 
G|-------|--------------------------| 
D|-3-3-3-|--2-----------------------|
A|-1-1-1-|--2-------------8-8-7-6-9-| 
E|-1-1-1-|--0-12-11-10-9------------|
 light pm
pacman part (3:36)
  ~~~~~~~~~~~~x3~~~~~~~~~~~~~~~
E|-9-4----9------10-5----10----|------9-10-| 
B|-----5----5--------5------5--|-----9-----|
G|-----------------------------|---10------|
D|-----------------------------|-----------|
A|-----------------------------|-----------|
E|-----------------------------|-----------|

(3:45) 
  ~~~~~~~~~~x4~~~~~~~~~~~~~
e|-------------------------| 
B|-------------------------| 
G|-------------------------| 
D|-2-----------------------|
A|-2-------------8-8-7-6-9-| 
E|-0-12-11-10-9------------|

n thts all thr is 2 it!
nice n easy yay its wot we all like
spill
Comments