Bloodhound Gang - Jackass Chords & Tabs

 

Jackass Chords & Tabs

Bloodhound Gang Chords & Tabs

Version: 1 Type: Tab 0 ratings
1 star 2 stars 3 stars 4 stars 5 stars
comments

Jackass Tab

   
Artist : Bloodhound Gang
Title : Jackass
Tuning : E A D G B E
Tab by : tim

most of this is right, but if you can correct me please correct it by tellin me. if you have
ANY corrections or any comments email or msn me at  
guitim69@hotmail.com

Intro : 

e----------------------------------------------------------
B----------------------------------------------------------
G----------------------------------------------------------
D--10-10-10-10-10------------10-10-10-10-10----------------
A---8--8--8--8--8--8-8-8-8-8--8--8--8--8--8---8-8-8-8-8----
E------------------6-6-6-6-6------------------6-6-6-6-6----

e------------------------------------
B------------------------------------
G------------------------------------
D-7-7-7-7-7-----------5-5-5-5-5-5----
A-5-5-5-5-5-5-5-5-5-5-3-3-3-3-3-3----                               2x
E-----------3-3-3-3-3----------------


00:23

Chorus :

e------------------------------------------
B------------------------------------------
G------------------------------------------
D---------7~---------10~-----------------------
A--8---8--5~-8----8---8~---------------------------
E--6---6-----6----6----------------------------

00:35 
                        cuz im a jackass
e------------------------------------------
B------------------------------------------
G------------------------------------------
D------------------------------7-----------
A--8-8-8-8-8-8-8-8-------8-----5-----------
E--6-6-6-6-6-6-6-6-------6-----------------


e----------------------------------------------------------
B----------------------------------------------------------
G----------------------------------------------------------
D--10-10-10-10-10------------10-10-10-10-10----------------
A---8--8--8--8--8--8-8-8-8-8--8--8--8--8--8---8-8-8-8-8----
E------------------6-6-6-6-6------------------6-6-6-6-6----
[ Tab from: http://www.guitartabs.cc/tabs/b/bloodhound_gang/jackass_tab.html ]
e------------------------------------
B------------------------------------
G------------------------------------
D-7-7-7-7-7-----------5-5-5-5-5-5----                            2x
A-5-5-5-5-5-5-5-5-5-5-3-3-3-3-3-3----
E-----------3-3-3-3-3----------------


e------------------------------------------
B------------------------------------------
G------------------------------------------
D---------7~---------10~-------------------
A--8---8--5~-8----8---8~-------------------
E--6---6-----6----6------------------------

           1:15            cuz im a jackass
e------------------------------------------
B------------------------------------------
G------------------------------------------
D------------------------------7-----------
A--8-8-8-8-8-8-8-8-------8-----5-----------
E--6-6-6-6-6-6-6-6-------6-----------------


e--------------------------------
B--------------------------------
G--------------------------------
D-10-10-10-10-10-10-10-10-10-----
A--8--8--8--8--8--8--8--8--8-----
E--------------------------------

Little thing here is played with clean sound
1:24


e------------------------
B------------------------
G------------------------
D----7--10------------------        3x
A--8-5--8-------------------
E--6----------------------

e------------------------
B------------------------
G------------------------
D----5-7-------------------      last time
A--8-3-5--------------------
E--6----------------------

1:46

e------------------------
B------------------------
G------------------------
D--5-5--5-5--5-5-5-5-5---
A--3-3--3-3--3-3-3-3-3---
E------------------------

guitar 1 plays this for the outro

e-----------------------------------
B-----------------------------------
G-----------------------------------
D-----------------7-7-7-7-7-7-7-7---
A-8-8-8-8-8-8-8-8-5-5-5-5-5-5-5-5---
E-6-6-6-6-6-6-6-6-------------------

cuz you're a jackass
e------------------------
B------------------------
G------------------------
D------5----7----------------
A--8---3----5-----------------
E--6----------------------




































Comments