Bloodhound Gang - I Hope You Die Chords & Tabs

 

I Hope You Die Chords & Tabs

Bloodhound Gang Chords & Tabs

Version: 9 Type: Tab 0 ratings
1 star 2 stars 3 stars 4 stars 5 stars
comments

I Hope You Die Tab

   
there are 2 guitars, so you'll have to find a friend

intro:

guitar 1
e-----------------------------------------------------------------|
B-----------------------------------------------------------------|
G-----------------------------------------------------------------|
D---------------------4-----4---3-----3-----3---------6-----6-----|x2
A-----8-----8---------------------4-4---4-4---4-3-----------------|
E-6-6---6-6---6-4-2-2---2-2---2-------------------4-4---4-4---4-5-|

guitar 2
e----------------------------------------|
B----------------------------------------|
G---------------------66-----------------|
D-88-------44---------66-------66--------|
A-88-------44---------44-------66--------|
E-66-------22------------------44--------|

e----------------------------------------|
B----------------------------------------|
G---------------------66-----------------|
D-88-------44---------66-------666666666-|
A-88-------44---------44-------666666666-|
E-66-------22------------------444444444-|

preverse 1:

guitar 1 keeps on doin' the same thing

guitar 2
e----------------------------------|
B----------------------------------|
G-----------------66666666---------|
D-88888888444444446666666666666666-|x2
A-88888888444444444444444466666666-|
E-6666666622222222--------44444444-|

preverse 2:

guitar 1
e---------------------4-|
B------------4-6--6-7---|
G-3-3-5-6--6------------|
D-----------------------|
A-----------------------|
E-----------------------|

guitar 2
e---------------------------|
B---------------------------|
G---------------6--6-5------|
D-8--8-6-4--4-6-6--6-5-6----|
A-8--8-6-4--4-6-4--4-3-6----|
E-6--6-4-2--2-4--------4----|

verse:

no guitar 1
[ Tab from: http://www.guitartabs.cc/tabs/b/bloodhound_gang/i_hope_you_die_tab_ver_9.html ]
guitar 2 (p.m.)
e----------------------------------|
B----------------------------------|
G-----------------66666666---------|
D-88888888444444446666666666666666-|x4
A-88888888444444444444444466666666-|
E-6666666622222222--------44444444-|

chorus 1(the "die die die" part):

yet again, no guitar 1

guitar 2 (p.m.)
e----------------------------------|
B----------------------------------|
G-----------------66666666---------|
D-88888888444444446666666666666666-|x2
A-88888888444444444444444466666666-|
E-6666666622222222--------44444444-|

chorus 2("i hope this helps")

guitar 1
e-----------------------------------------------------------|
B-----------------6-6-67646-6-6764----------------6-6-67646-|
G-----------------------------------------------------------|
D-----------------------------------------------------------|
A-----------------------------------------------------------|
E-----------------------------------------------------------|

guitar 2
e-----------------------------------------------------------|
B-----------------------------------------------------------|
G-----------------6-6-6-6-------------------------6-6-6-6---|
D-3-3-3-3-4-4-4-4-6-6-6-6-6-6-6-6-3-3-3-3-4-4-4-4-6-6-6-6-6-|
A-3-3-3-3-4-4-4-4-4-4-4-4-6-6-6-6-3-3-3-3-4-4-4-4-4-4-4-4-6-|
E-1-1-1-1-2-2-2-2---------4-4-4-4-1-1-1-1-2-2-2-2---------4-|


here's the order

intro
preverse 1
preverse 2
verse
chorus 1
verse
chorus 2
preverse 1
preverse 2
verse
chorus 1
verse
chorus 2
preverse 1
intro (hey look, its the outro too!)


anyway, i did my best. i hope u like it.

i wanna know how i did, so pleeeeeeeaaaaaaaaase rate this.

if u have questions, comments, or need lyrics then e-mail me at SSK1116@aol.com

ultimate guitar rules!
Comments