Bloodhound Gang - I Hope You Die Correct Chords & Tabs

 

I Hope You Die Correct Chords & Tabs

Bloodhound Gang Chords & Tabs

Version: 1 Type: Tab 3 ratings
1 star 2 stars 3 stars 4 stars 5 stars
comments

I Hope You Die Correct Tab

I Hope You Die
Bloodhound Gang
Guitar tab by: Yobe

I looked at the other tabs for this song and all were either incorrect or incomplete. Here is the complete and accurate tab for I Hope You Die.

Tuning: Drop the higher pitched E string down a half note or else it’s harder to do the break riff.

Intro and Chorus:
E--------------------------------------------------------|
B--------------------------------------------------------|
G--------------------------------------------------------|
D-------------------4-----4-------3-----3-------6-----6--|
A-----8-----8-----------------4-4---4-4---4--------------|
E-6-6---6-6---6-2-2---2-2---2---------------4-4---4-4---4|  
[ Tab from: http://www.guitartabs.cc/tabs/b/bloodhound_gang/i_hope_you_die_correct_tab.html ]
E|------------------------------------------------|
B|---------------------------------------9--------|
G|----------------------8--10--10-10-11-----------|
D|-8--8-8-10--11--11-11---------------------6-6--6|
A|------------------------------------------6-6--6|
E|------------------------------------------4-4--4|

Break:

E|------------------------|
B|------------------------|
G|------------------------|
D|-3--3--3--3--4--4--4--4-|
A|-3--3--3--3--4--4--4--4-|
E|-1--1--1--1--2--2--2--2-|
I hope this helps to emphasize

E|-2---2---2-3-2-0-2---2---2-3-2-0-|
B|---------------------------------|
G|---------------------------------|
D|---------------------------------|
A|---------------------------------|
E|---------------------------------|

E|------------------------|
B|------------------------|
G|------------------------|
D|-3--3--3--3--4--4--4--4-|
A|-3--3--3--3--4--4--4--4-|
E|-1--1--1--1--2--2--2--2-|

E|-2---2---2-3-2-0-2---------------|
B|---------------------------------|
G|---------------------------------|
D|---------------------------------|
A|---------------------------------|
E|---------------------------------|
Comments