Bloodhound Gang - Hell Yeah Chords & Tabs

 

Hell Yeah Chords & Tabs

Bloodhound Gang Chords & Tabs

Version: 3 Type: Bass Tab 0 ratings
1 star 2 stars 3 stars 4 stars 5 stars
comments

Hell Yeah Bass Tab

   
Written by Coolcatch: coolcatch@hotmail.com

                              HELL YEAH (Bassline)
                         As recorded by Bloodhound Gang
                    (From the 1999 Album HOORAY FOR BOOBIES)


Gtr I (E A D G) - 'Untitled'

 Intro
  Moderately Q=94
 4/4
  Gtr I
                                                  4x
|---------||------------------|-------------------||
|---------||o-----------------|-----4--------7---o||
|---------||o-----5-------5---|-2-2---2-/5-5---5-o||
|---------||--3-3---3-3-3---3-|-------------------||


 Verse
|-----------------|-----------------|-----------------|------------------|
|-----------------|-----------------|-----------------|-----4--------7---|
|-----------------|-2-2-2-2-5-5-5-5-|-----5-------5---|-2-2---2-/5-5---5-|
|-3-3-3-3-3-3-3-3-|-----------------|-3-3---3-3-3---3-|------------------|


|-----------------|-----------------|-----------------|------------------|
|-----------------|-----------------|-----------------|-----4--------7---|
|-----------------|-2-2-2-2-5-5-5-5-|-----5-------5---|-2-2---2-/5-5---5-|
|-3-3-3-3-3-3-3-3-|-----------------|-3-3---3-3-3---3-|------------------|


|-----------------|-----------------|-----------------|-----------------|
|-----------------|-----------------|-----------------|-----------------|
|-----------------|-2-2-2-2-5-5-5-5-|-----------------|-2-2-2-2-5-5-5-5-|
|-3-3-3-3-3-3-3-3-|-----------------|-3-3-3-3-3-3-3-3-|-----------------|


|-----------------|-----------------|-----------------|-----------|
|-----------------|-----------------|-----------------|-----------|
|-----------------|-2-2-2-2-5-5-5-5-|-----------------|-2----5----|
|-3-3-3-3-3-3-3-3-|-----------------|-3-3-3-3-3-3-3-3-|-----------|


   Interlude 1
                                        4x
||------------------|-------------------||
||o-----------------|-----4--------7---o||
||o-----5-------5---|-2-2---2-/5-5---5-o||
||--3-3---3-3-3---3-|-------------------||


 Verse 2
|-----------------|-----------------|-----------------|------------------|
|-----------------|-----------------|-----------------|-----4--------7---|
|-----------------|-2-2-2-2-5-5-5-5-|-----5-------5---|-2-2---2-/5-5---5-|
|-3-3-3-3-3-3-3-3-|-----------------|-3-3---3-3-3---3-|------------------|


|-----------------|-----------------|-----------------|------------------|
|-----------------|-----------------|-----------------|-----4--------7---|
|-----------------|-2-2-2-2-5-5-5-5-|-----5-------5---|-2-2---2-/5-5---5-|
|-3-3-3-3-3-3-3-3-|-----------------|-3-3---3-3-3---3-|------------------|

[ Tab from: http://www.guitartabs.cc/tabs/b/bloodhound_gang/hell_yeah_btab_ver_3.html ]
|-----------------|-----------------|-----------------|-----------------|
|-----------------|-----------------|-----------------|-----------------|
|-----------------|-2-2-2-2-5-5-5-5-|-----------------|-2-2-2-2-5-5-5-5-|
|-3-3-3-3-3-3-3-3-|-----------------|-3-3-3-3-3-3-3-3-|-----------------|


|-----------------|-----------------|-----------------|-----------|
|-----------------|-----------------|-----------------|-----------|
|-----------------|-2-2-2-2-5-5-5-5-|-----------------|-2----5----|
|-3-3-3-3-3-3-3-3-|-----------------|-3-3-3-3-3-3-3-3-|-----------|


   Interlude 2
                                        4x
||------------------|-------------------||
||o-----------------|-----4--------7---o||
||o-----5-------5---|-2-2---2-/5-5---5-o||
||--3-3---3-3-3---3-|-------------------||


   Bridge
||------------------|-----------------|-----------------|------------------|
||o-----------------|-----------------|-----------------|------------------|
||o-3-3-3-3-3-3-3-3-|-3-3-3-3-3-3-3-3-|-----------------|------------------|
||------------------|-----------------|-3-3-3-3-3-3-3-3-|-3-3-3-3-3-3-3-3--|


|-----------------|-----------------|-----------------|-----------------|
|-----------------|-----------------|-----------------|-----------------|
|-0-0-0-0-0-0-0-0-|-0-0-0-0-0-0-0-0-|-----------------|-----------------|
|-----------------|-----------------|-0-0-0-0-0-0-0-0-|-0-0-0-0-0-0-0-0-|


|-----------------|-----------------|-----------------|-----------------|
|-----------------|-----------------|-----------------|-----------------|
|-3-3-3-3-3-3-3-3-|-3-3-3-3-3-3-3-3-|-----------------|-----------------|
|-----------------|-----------------|-3-3-3-3-3-3-3-3-|-3-3-3-3-3-3-3-3-|


|-----------------|-----------------|-----------------|-----------||
|-----------------|-----------------|-----------------|----------o||
|-0-0-0-0-0-0-0-0-|-0-0-0-0-0-0-0-0-|-----------------|----------o||
|-----------------|-----------------|-0-0-0-0-0-0-0-0-|-0---------||


   Outro
||------------------|---------------|
||o-----------------|---------------|
||o-3-3-3-2-3-3-3-2-|-3-3-3-5--7--7-|
||------------------|---------------|


|-----------------------|----------------------|
|-----------------------|----------------------|
|-10-10-10-9-10-10-10-9-|-10-10-10-12--14--14--|
|-----------------------|----------------------|


                                                                   4x
|-----------------|---------------|---------------|----------------||
|-----------------|---------------|---------------|---------------o||
|-----------------|---------------|-7--7-5-3--3-2-|-0-0-0---------o||
|-5-5-5-4-5-5-5-4-|-5-5-5-7--8--8-|---------------|-------3--1-0---||
Comments