Bloodhound Gang - Foxtrot Uniform Charlie Kilo Chords & Tabs

 

Foxtrot Uniform Charlie Kilo Chords & Tabs

Bloodhound Gang Chords & Tabs

Version: 1 Type: Bass Tab 0 ratings
1 star 2 stars 3 stars 4 stars 5 stars
comments

Foxtrot Uniform Charlie Kilo Bass Tab

Song - Foxtrot Uniform Charlie Kilo
Artist - Bloodhound Gang
Album - (dont know yet! sorry!)
Tabbed by - Daniel Cummins - dan_the_man_no1@hotmail.com

INTRO 
G|-3~------------------------------------------------------------------|
D|---44-444-411-111-1----------------44-444-411-111-1------------------|
A|-------------------11-111-144-444-4----------------11-111-144-444----|
E|------------------------------------------------------------------6~-|

VERSE - X3
G|----------------------------------|
D|---------11111111-----------------|
A|-----------------1111111144444444-|
E|-22222222-------------------------|
(4th time)
G|---------------------------|
D|---------11111111----------|
A|-----------------111111114-|
E|-22222222------------------|

PRE CHORUS 
G|----------------------------------|
D|----------------------------------|
A|-2222222222222222--------44444444-|
E|-----------------22222222---------|

G|----------------------------------|
D|-----------------11111111---------|
A|-2222222222222222--------44444444-|
E|----------------------------------|

CHORUS - X2
G|----------------------------------|
D|---------11111111-----------------|
A|-----------------1111111144444444-|
E|-22222222-------------------------|
[ Tab from: http://www.guitartabs.cc/tabs/b/bloodhound_gang/foxtrot_uniform_charlie_kilo_btab.html ]
BRIDGE 
G|-------------------------------------------------------------------|
D|-44-444-411-111-1----------------44-444-411-111-1------------------|
A|-----------------11-111-144-444-4----------------11-111-144-444----|
E|----------------------------------------------------------------6~-|

VERSE - X3
G|----------------------------------|
D|---------11111111-----------------|
A|-----------------1111111144444444-|
E|-22222222-------------------------|
(4th time)
G|---------------------------|
D|---------11111111----------|
A|-----------------111111114-|
E|-22222222------------------|

PRE CHORUS 
G|----------------------------------|
D|----------------------------------|
A|-2222222222222222--------44444444-|
E|-----------------22222222---------|

G|----------------------------------|
D|-----------------11111111---------|
A|-2222222222222222--------44444444-|
E|----------------------------------|

CHORUS - X4
G|----------------------------------|
D|---------11111111-----------------|
A|-----------------1111111144444444-|
E|-22222222-------------------------|

OUTRO - X2
G|----------------------------------|
D|---------11111111-----------------|
A|-----------------1111111144444444-|
E|-22222222-------------------------|

LAST NOTE - 
G|--------|
D|--------|
A|--------|
E|-2~~~~~-|

WHAT A SONG! neway im pretty sure thats right.
PLEASE RATE AND COMMENT!
Dan.
Comments