Bloodhound Gang - Bad Touch Chords & Tabs

 

Bad Touch Chords & Tabs

Bloodhound Gang Chords & Tabs

Version: 4 Type: Tab 2 ratings
1 star 2 stars 3 stars 4 stars 5 stars
comments

Bad Touch Tab

Bad Touch by Bloodhound Gang
Tabbed by Fantomas83

Common Time
(10 Measures Rest)
E-----------------------------------------------------------------------------------------------------------------
B-----------------------------------------------------------------------------------------------------------------
G--------------------------------------------------------------3----3---0---------------------------------------
D--------------1----3------1----3----1------1----0------------------------3-----1----3----1-----1----3----3
A----3----3------------3-----------------3-----------1----1-------------------3----------------3--------------
E-----------------------------------------------------------------------------------------------------------------
(Repeat 1st Line)

E----------------------------------------------------------------------------------------------
B----------------------------------------------------------------------------------------------
G----------------------------------------------------------------------------------------------
D----5-5-5-5-5-5-5-5----8-8-8-8-8-8-8-8----3-3-3-3-3-3-3-3-------------------------
A----3-3-3-3-3-3-3-3----6-6-6-6-6-6-6-6----1-1-1-1-1-1-1-1---- 6-6-6-6-6-6-6-6-
E--------------------------------------------------------------------------4-4-4-4-4-4-4-4-
(Repeat 2nd Line)
[ Tab from: http://www.guitartabs.cc/tabs/b/bloodhound_gang/bad_touch_tab_ver_4.html ]
E----------------------------------------------------------------------------------------------
B----------------------------------------------------------------------------------------------
G----------------------------------------------------------------------------------------------
D----5-5-5-5-5-5-5-5----8-8-8-8-8-8-8-8----3-3-3-3-3-3-3-3-------------------------
A----3-3-3-3-3-3-3-3----6-6-6-6-6-6-6-6----1-1-1-1-1-1-1-1---- 6-6-6-6-6-6-6-6-
E--------------------------------------------------------------------------4-4-4-4-4-4-4-4-

E----------------------------------------------------------------------------------------------
B----------------------------------------------------------------------------------------------
G----------------------------------------------------------------------------------------------
D----5-5-5-5-5-5-5-5----8-8-8-8-8-8-8-8----3-3-3-3-3-3-3-3-------------------------
A----3-3-3-3-3-3-3-3----6-6-6-6-6-6-6-6----1-1-1-1-1-1-1-1---- 6------------------
E--------------------------------------------------------------------------4-------------------

(8 Measures Rest)
E-----------------------------------------------------------------------------
B-----------------------------------------------------------------------------
G--- 5--------8--------3-------------------5--------8--------3-------------
D----5--------8--------3--------6--------- 5--------8--------3--------6---
A----3--------6--------1--------6---------3--------6--------1-------- 6---
E-------------------------------- 4-------------------------------- ------4---

E------------------------------------------------------------------------------------------------------------
B------------------------------------------------------------------------------------------------------------
G--------------------------------------------------------------3----3---0-----------------------------------
D--------------1----3------1----3----1------1----0------------------------3-----1----3----1-----1----3-
A----3----3------------3-----------------3-----------1----1-------------------3----------------3----------
E-------------------------------------------------------------------------------------------------------------
Comments