Bloodhound Gang - Along Comes Mary Chords & Tabs

 

Along Comes Mary Chords & Tabs

Bloodhound Gang Chords & Tabs

Version: 8 Type: Tab 0 ratings
1 star 2 stars 3 stars 4 stars 5 stars
comments

Along Comes Mary Tab

This is my first tab so be easy on me. The strumming is easy and you should be able to 
that out on your own. I think these are right, so enjoy.

Inro/Chorus: Play through twice

---------------------------------|
---------------------------------|
------5---7---5---8---7---5---7--|
--5---5---7---5---8---7---5---7--|
--5---3---5---3---6---5---3---5--|
--3------------------------------|

Verse 1: Play through twice

-------------------------------|
-------------------------------|
------7---8---5----------------|
--5---7---8---5----------------|
--5---5---6---3----------------|
--3----------------------------|

Pre-Chorus: Play through once (First 7 power chords X2, last one X1)
[ Tab from: http://www.guitartabs.cc/tabs/b/bloodhound_gang/along_comes_mary_tab_ver_8.html ]
-------------------------------------|
-------------------------------------|
--5---8---7---5---7-----------5------|
--5---8---7---5---7---5---4---5------|
--3---6---5---3---5---5---4---3------|
----------------------3---2----------|

Then Chorus, Verse 2(Same as verse 1), Pre-Chorus, Chorus, Verse 3 (Same as verse 1), 
Chorus, Pre-chorus X2, then...

Play through four times, first two times palm muted, last two times regular.

------------------------------------------------------------------|
------------------------------------------------------------------|
-------8---7---5---7-----------5---7---8---7---5---7-----------5--|
---5---8---7---5---7---5---4---5---7---8---7---5---7---5---4---5--|
---5---6---5---3---5---5---4---3---5---6---5---3---5---5---4---3--|
---3-------------------3---2---------------------------3---2------|
Comments