Bloodhound Gang - Along Comes Mary Chords & Tabs

 

Along Comes Mary Chords & Tabs

Bloodhound Gang Chords & Tabs

Version: 4 Type: Tab

Along Comes Mary Tab

Hi!
This is the TAB for Along comes Mary by the BloodhoundGang 
from their album hooray for boobies.
Hope there are no mistakes!
Good luck 

 



e------------------------------------------------------------------------------
-----------------------------------
h-----------------------------------------------------------------------------
-----------------------------------
g-----------------------------------5---------7---7---7---7---7---7------5----
----8---8---8---8---8---8
d---5---5---5---5---5---5------5---------7---7---7---7---7---7------5---------
8---8---8---8---8---8
a---5---5---5---5---5---5------3---------5---5---5---5---5---5------3---------
6---6---6---6---6---6
E--3---3---3---3---3---3------------------------------------------------------
-------------------------------

e-----------------------------------------------------------------------------
--------I-----------------------------h---------------------------------------
---------------------------------------------------------------------------g--
--7---------5---5---5---5---5---5-------7------------------------------------I
d----7---------5---5---5---5---5---5-------7--------5---5---5---5---5---5---I
a----5---------3---3---3---3---3---3-------5--------5---5---5---5---5---5---I 
    chours
[ Tab from: http://www.guitartabs.cc/tabs/b/bloodhound_gang/along_comes_mary_tab_ver_4.html ]
choursE---------------------------------------------------------3---3---3---3---3---3---
I  repeat it!



it!e---------------------------------------------------------------------------------------
-
h-----------------------------------------------------------------------------
-----------
g-------------------------------------7---7---7---7---7---7------8---8---8---8
---8---8---
d----5---5---5---5---5---5-------7---7---7---7---7---7------8---8---8---8---8-
--8----
a----5---5---5---5---5---5-------5---5---5---5---5---5------6---6---6---6---6-
--6----                   
E---3---3---3---3---3---3-----------------------------------------------------
----------------


e-----------------------------------------------------------------------------
---------------------------
h-----------------------------------------------------------------------------
----------------------------
g-----5---5---5---5---5---5---------------------------------------------------
-----------------------
d-----5---5---5---5---5---5-------5---5---5---5---5---5-----------------------
------------------
a-----3---3---3---3---3---3-------5---5---5---5---5---5-----------------------
------------------
E-------------------------------------3---3---3---3---3---3-------------------
----------------------

                                            a bit muted 

Good luck!