Bloodbath - Like Fire Chords & Tabs

 

Like Fire Chords & Tabs

Bloodbath Chords & Tabs

Version: 1 Type: Tab 0 ratings
1 star 2 stars 3 stars 4 stars 5 stars
comments

Like Fire Tab

   
Band:  (BloodBath)
Album: (Resurrection Through Carnage )
Song:  (like fire)

Copyright (c)  (the end records) (2002)
Version 1.0 - (8-13-04)

Transcribed By: (David tnomlim)phobialoser


.  - palm mute           /  - slide up to
\  - slide down to       ~  - vibrato
h  - hammer on           b  - Bend
p  - pull off            Suffixes for bend
t  - tap                 f  - full bend    h - half bend
ph - pinched harmonic    q  - quarter bend t - tap bend
*  - see comment         ^  - Hold bend    r release bend
x  - Stuccatto           ~  - vibrato bend
,  - slight palm mute    () - ghost note, sustained note
"  - tremolo note        <> - Trill

 B, E, A, D, F#, B. =tuning

spacing is not accurate for rhythem and timing.
Riffs are only shown the first time they are played

In order to get their chainsaw distortion get one of those old boss
 hm2s off of ebay
for about 30 bucks and run it through another type of distortion to get that
crazy sound!
(use your ears to find the right distortion sound,but i get good results with
it going with my amp distortion.)


0:00
E----------------------------------------------------------------------||
B----------------------------------------------------------------------||
G----------------------------------------------------------------------||
D--------------------------------------------------------5-------------||
A-2--2-2-2-2-2-2-2--2-2-2-2-2-2-2--2-2-2-2-2-2-2-2-3--6--3-------------||
E-0--0-0-0-0-0-0-0--0-0-0-0-0-0-0--0-0-0-0-0-0-0-0-1--4----------------||

E----------------------------------------------------------------------||
B----------------------------------------------------------------------||
G----------------------------------------------------------------------||
D-4--------------------------------------------------------------------||
A-2--2-2-2-2-2-2-2--2-2-2-2-2-2-2--2-2-2-2-2-2-2-2-5--5--3-------------||
E----0-0-0-0-0-0-0--0-0-0-0-0-0-0--0-0-0-0-0-0-0-0-4--3--1-------------||


0:31
E-----------------------------------------------------------------------||
B-----------------------------------------------------------------------||
G-----------------------------------------------------------------------||
D----8-7-4---8-7-----7-6------------------------------------------------||
A--6-6-5-2---6-5-6-5-5-4-5--5-5-5--5-5-5--------------------------------||
E--4-6-5-----6-5-4-3-5-4-3--3-3-3--3-3-3--------------------------------||


0:50 lead
E-----------------------------18-17-----------------15-------18--------||
B-8-----11----14-14-14-14-14--------18-17------------------------------||
G-----------------------------------------14---9/12----12/15----15/19--||
D----------------------------------------------------------------------||
A----------------------------------------------------------------------||
E----------------------------------------------------------------------||


0:50 lead destruction
E-----------------------------15-14---------------12------15-----------||
B-----------------------------------15-14------------------------------||
G-9----12----15-15--15-15-15--------------11--6/9----9/12----12/15-----||
D----------------------------------------------------------------------||
A----------------------------------------------------------------------||
E----------------------------------------------------------------------||


1:32 alternate pick
E----------------------------------------------------------------------||
B----------------------------------------------------------------------||
G---------4-3----------------------------------------------------------||
D-2---4-5--------------------------------------------------------------||
A-------------2-1------------------------------------------------------||
E-------------------3-2-3-5-3------------------------------------------||

[ Tab from: http://www.guitartabs.cc/tabs/b/bloodbath/like_fire_tab.html ]
1:57
E----------------------------------------------------------------------||
B----------------------------------------------------------------------||
G----------------------------------------------------------------------||
D-9----5----8-------6--------------------------------------------------||
A-7----3----6---------5---6--------------------------------------------||
E-0----3----6---0-0-----4---5-0-6-4------------------------------------||


2:12 alternate pick
E-----------------------------------------------------------------------||
B-----------------------------------------------------------------------||
G----------7-6----------------------------------------------------------||
D--5---7-8-----8-7-8-7-5-4-5-4------------------------------------------||
A-----------------------------------------------------------------------||
E-----------------------------------------------------------------------||


2:22 lead
E------------------------------|---------------------------------------||
B------------------------------|---------------------------------------||
G--------7-6h7p6---------------|--------7-6h7p6------------------------||
D-5--7-8---------8-7-4-4-5-4---|-5--7-8---------8-8-9-9-10-9-----------||
A------------------------------|---------------------------------------||
E------------------------------|---------------------------------------||


2:23 rhythem section
E----------------------------------------------------------------------||
B----------------------------------------------------------------------||
G----------------------------------------------------------------------||
D----------------------------------------------------------------------||
A-5---4---2--2-2-2-2-2-2-2-2-2-2-2-2-----------------------------------||
E-3---2---0--0-0-0-0-0-0-0-0-0-0-0-0-----------------------------------||


3:42 lead
E----------------------|-----------------------------------------------||
B----------------------|-----------------------------------------------||
G--------7-6-----------|--------7-6------------------------------------||
D-5--7-8---------------|-5--7-8----------------------------------------||
A------------5-4--5-4--|------------5-4--5-4-5-4-----------------------||
E----------------------|-----------------------------------------------||


3:42 lead destruction
E----------------------|-----------------------------------------------||
B----------------------|-----------------------------------------------||
G--------4-3-----------|--------4-3------------------------------------||
D-2--4-5---------------|-2--4-5----------------------------------------||
A------------2-1--2-1--|------------2-1--2-1-2-1-----------------------||
E----------------------|-----------------------------------------------||


3:42
E----------------------------------------------------------------------||
B----------------------------------------------------------------------||
G----------------------------------------------------------------------||
D----------------------------------------------------------------------||
A--2---------2---------------------------------------------------------||
E--0---------0------3-2-3-2--------------------------------------------||


3:57
E----------------------------------------------------------------------||
B----------------------------------------------------------------------||
G----------------------------------------------------------------------||
D----------------------------------------------------------------------||
A--2---------2---------------------------------------------------------||
E--0-----6---0-----6---2-3-2-------------------------------------------||


4:14
E-----------------------------------------------------------------------||
B-----------------------------------------------------------------------||
G--7-8-6-7--------------------------------------------------------------||
D----------6-7----------------------------------------------------------||
A--------------6-7------------------------------------------------------||
E------------------7-8-6-7----------------------------------------------||
'
that is it, hope you enjoyed
Comments