Bloodbath - Buried By The Dead Chords & Tabs

 

Buried By The Dead Chords & Tabs

Bloodbath Chords & Tabs

Version: 1 Type: Tab 0 ratings
1 star 2 stars 3 stars 4 stars 5 stars
comments

Buried By The Dead Tab

http://bloodbath.biz

Bloodbath - Buried by the Dead
From the Album - Resurrection Through Carnage
Version 1.0 - April - 2003
Transcribed by Jon (YourDeadGroom)

For Questions, Comments, Newest Version, or Corrections,
take some guitar lessons and figure it out yourself.

Notes: This is notated in E to make reading it less confusing, but each string
should be tuned down to: (lowest to highest) B, E, A, D, F#, B.
Notes with a '*' next to it indicate that it should be speed picked.
'h' = hammer on, 'p' = pull off.
Spacing and barlines are a rough approximation of rhythm only.
Riffs are only indicated the first time they are played, it's up to you to
figure out where they may get repeated.
The use of '||' indicates the end of a riff/section.

0:02
E----------------------------|---------------------|
B----------------------------|---------------------|
G----------------------------|---------------------|
D----------------------------|---------------------|
A--------2------2-----1------|--------2-----1------|
E-3--0-0-0--0-0-0--3-----2-2-|-3--0-0-0--3-----2-2-|
[ Tab from: http://www.guitartabs.cc/tabs/b/bloodbath/buried_by_the_dead_tab.html ]
E--------------------------|----------------------||
B--------------------------|----------------------||
G--------------------------|----------------------||
D--------------------------|----------------------||
A--------2------2-----1----|------------3-2---1---||
E-3--0-0-0--0-0-0--3-----2-|-3--2h3p2-1-----3---2-||

0:26
E-----||
B-----||
G-----||
D-----||
A-2---||
E-0---||

0:30 (speed pick all)
E------------------------||
B------------------------||
G------------------------||
D----------------9-10-8--||
A-----7-----7-6----------||
E-0------8---------------||

0:38 (speed pick all)
E---------------------||
B---------------------||
G---------------------||
D---------------------||
A-2---3---------4--3--||
E---------3--2--------||

0:46
E----------------------------||
B----------------------------||
G----------------------------||
D----------------------------||
A-----*7-----*7-*6--9--10-8--||
E-*0------8---------7--8--6--||

1:42
E----------------------------|------------------------||
B----------------------------|------------------------||
G----------------------------|------------------------||
D--------------*5------------|-----------------*5--*2-||
A-2---5-2---*2-----*2-*3--2--|-2---7-6--*3--*2--------||
E-0---3-0-----------------0--|-0----------------------||

3:02
E--------|---------||
B--------|---------||
G--------|---------||
D--------|---------||
A-2--2---|-2-------||
E-0--0---|-0-------||
Comments