Blood For Blood - When The Storm Comes Chords & Tabs

 

When The Storm Comes Chords & Tabs

Blood For Blood Chords & Tabs

Version: 1 Type: Tab 0 ratings
1 star 2 stars 3 stars 4 stars 5 stars
comments

When The Storm Comes Tab

When The Storm Comes 
By Blood For Blood
Tabbed by Jason

Okay, this tab isn't perfect; I didn't bother to figure out the leads, 
I didn't always write the correct number of notes or indicate rhythm,
and since I tabbed some of it from memory it might be a little off, 
but it sounds about right to me. Also, I think it's tuned down a half
step.

Intro/Chorus (Victim, victim)
|-------------------------------------|
|-------------------------------------|
|-------------6-----------------------|
|-4-4-4-4-4-4-6-7-7-2-2-2-2-2-2-9-7-2-|
|-4-4-4-4-4-4-4-7-7-2-2-2-2-2-2-9-7-2-|
|-2-2-2-2-2-2---5-5-0-0-0-0-0-0-7-5-0-|
[ Tab from: http://www.guitartabs.cc/tabs/b/blood_for_blood/when_the_storm_comes_tab.html ]
Verse
|--------------------------------------------------------------|
|--------------------------------------------------------------|
|--------------------------------------------------------------|
|-4-4-44444-4-44447-6-7-2-5-2-4-4-44444-4-44442-2-22222-2-2222-|
|-4-4-44444-4-44447-6-7-2-5-2-4-4-44444-4-44442-2-22222-2-2222-|
|-2-2-22222-2-22225-4-5-0-5-0-2-2-22222-2-22220-0-00000-0-0000-|

Bridge (And when the storm comes...)
|---------------------|
|---------------------|
|------4----2----6----|
|-4----4----2----6----|
|-4----2----0----4----|
|-2-------------------|This part is wrong I think but sounds ok

Slow Part (I'll never be a victim)
|-------------------------------|
|-------------------------------|
|---------6---------------------|
|-4-4-4-4-6-6-7-6-2-4-2-4-2-4-2-|
|-4-4-4-4-4-6-7-6-2-4-2-4-2-4-2-|
|-2-2-2-2---4-5-4-0-2-0-2-0-2-0-|

There are a few other parts but you should be able to figure them out...
That's about it. For the lead parts in the beginning I think it's just
a single note or octave version of the chords on a higher octave.
Send questions, comjments, death threats, etc. to zpunk13@aol.com
Comments