Blood For Blood - Some Kind Of Hate Chords & Tabs

 

Some Kind Of Hate Chords & Tabs

Blood For Blood Chords & Tabs

Version: 1 Type: Tab 0 ratings
1 star 2 stars 3 stars 4 stars 5 stars
comments

Some Kind Of Hate Tab

   
-----------------------------------------------------------------
some kind of hate - BLOOD FOR BLOOD
-----------------------------------------------------------------
Tabbed by:akbal260
Email:akbal0594@hotmail.com

this is my first tab...hope you like it

Tuning:drop D

intro:
e|---------------------------------------------------------------|
B|---------------------------------------------------------------|
G|---------------------------------------------------------------|
D|-5-5-5-5-5-5-5-5-5-5-5-5-5-5-5-5-5-5-5-5-5-5-5-3-3-3-3-3-3-3---|
A|-5-5-5-5-5-5-5-5-5-5-5-5-5-5-5-5-5-5-5-5-5-5-5-3-3-3-3-3-3-3---|
D|-5-5-5-5-5-5-5-5-5-5-5-5-5-5-5-5-5-5-5-5-5-5-5-3-3-3-3-3-3-3---|

chorus:
e|---------------------------------------------------------------|
B|---------------------------------------------------------------|
G|---------------------------------------------------------------|
D|-5-5-5-5-1-1-1-1-3-3-3-3-5-5-5-5-------------------------------|
A|-5-5-5-5-1-1-1-1-3-3-3-3-5-5-5-5-------------------------------|
D|-5-5-5-5-1-1-1-1-3-3-3-3-5-5-5-5-------------------------------|
                                                                  
e|---------------------------------------------------------------|
B|---------------------------------------------------------------|
G|---------------------------------------------------------------|
D|-5-5-5-5-8-8-8-8-10-10-10-10-8-8-(5)-(5)---------------(5)-(5)-|
A|-5-5-5-5-8-8-8-8-10-10-10-10-8-8-(5)-(5)---------------(5)-(5)-|
D|-5-5-5-5-8-8-8-8-10-10-10-10-8-8-(5)-(5)---------------(5)-(5)-|
[ Tab from: http://www.guitartabs.cc/tabs/b/blood_for_blood/some_kind_of_hate_tab.html ]
verse 1:
e|---------------------------------------------------------------|
B|---------------------------------------------------------------|
G|---------------------------------------------------------------|
D|-5-5-5-5-5-5-5-5-8-8-8-8-11-11-10-10---------------------------|
A|-5-5-5-5-5-5-5-5-8-8-8-8-11-11-10-10---------------------------|
D|-5-5-5-5-5-5-5-5-8-8-8-8-11-11-10-10---------------------------|
                                                                    
e|---------------------------------------------------------------|
B|---------------------------------------------------------------|
G|---------------------------------------------------------------|
D|-5-5-5-5-5-5-5-5-8-8-8-8-3-3-3-3-------------------------------|
A|-5-5-5-5-5-5-5-5-8-8-8-8-3-3-3-3-------------------------------|
D|-5-5-5-5-5-5-5-5-8-8-8-8-3-3-3-3-------------------------------|

bridge:
e|---------------------------------------------------------------|
B|---------------------------------------------------------------|
G|---------------------------------------------------------------|
D|-8-8-8-8-10-10-10-10-8-8-8-8-10-10-10-10-8-8-8-8-10-10-10-10-5-|
A|-8-8-8-8-10-10-10-10-8-8-8-8-10-10-10-10-8-8-8-8-10-10-10-10-5-|
D|-8-8-8-8-10-10-10-10-8-8-8-8-10-10-10-10-8-8-8-8-10-10-10-10-5-|

verse 2:
e|---------------------------------------------------------------|
B|---------------------------------------------------------------|
G|---------------------------------------------------------------|
D|-8-8-8-8-3-3-3-3-5-5-5-5-1-1-3-3-------------------------------|
A|-8-8-8-8-3-3-3-3-5-5-5-5-1-1-3-3-------------------------------|
D|-8-8-8-8-3-3-3-3-5-5-5-5-1-1-3-3-------------------------------|

e|---------------------------------------------------------------|
B|---------------------------------------------------------------|
G|---------------------------------------------------------------|
D|-8-8-8-8-3-3-3-3-5---------------------------------------------|
A|-8-8-8-8-3-3-3-3-5---------------------------------------------|
D|-8-8-8-8-3-3-3-3-5---------------------------------------------|

outro:
e|-----|
B|-----|
G|-----|
D|-5-5-|
A|-5-5-|
D|-5-5-|

STRUCTURE:
intro..............x2
chorus.............x2
verse 1............x4
chorus.............x2
verse 1............x2
bridge.............x2
verse 2............x2
intro..............x2
verse 2............x2
outro..............x1
Comments