Blood For Blood - My Time Is Yet To Come Chords & Tabs

 

My Time Is Yet To Come Chords & Tabs

Blood For Blood Chords & Tabs

Version: 1 Type: Tab 0 ratings
1 star 2 stars 3 stars 4 stars 5 stars
comments

My Time Is Yet To Come Tab

STANDART TUNING

STARTING           VERSE 1
e|--------------|  e|------------------------------------|
B|--------------|  B|------------------------------------|
G|--------------|  G|-----------------8--8-8--11-11-1111-|
D|13------------|  D|13-1313-11-11-11-8--8-8--11-11-1111-|
A|13-LET RING---|  A|13-1313-11-11-11-6--6-6--9--9--9-9--|
E|11------------|  E|11-1111-9--9--9---------------------|

FILL
e|------------------------|
B|------------------------|
G|11----10----------------|
D|11----10----11----10----|
A|9-----8-----11----10----|
E|------------9-----8-----|
[ Tab from: http://www.guitartabs.cc/tabs/b/blood_for_blood/my_time_is_yet_to_come_tab.html ]
VERSE 2
e|-----------------------------------------------------------
B|-----------------------------------------------------------
G|-----------------------------------------------------------
D|10-10101010101010-1010-101010-13-13131313131313--1111-111111-
A|10-10101010101010-1010-101010-13-13131313131313--1111-111111-
E|8--8-8-8-8-8-8-8--8-8--8-8-8--11-11111111111111--1111-111111--
    *****PM****                    *****PM*****

e|---------------------------------------------------------|---------------|
B|---------------------------------------------------------|LAST TIME------|
G|---------------------------------------------------------|REPEAT THE-----|
D|10-10101010101010-1010-101010-13-131313131313-10--13--11-|LAST 3 NOTES-13|
A|10-10101010101010-1010-101010-13-131313131313-10--13--11-|4 TIMES AND--13|
E|8--8-8-8-8-8-8-8--8-8--8-8-8--11-111111111111-8---11--9--|END ON-------11|

SONG STRUCTURE;
STARTING(X1)
VERSE 1 (X6)
VERSE 1 (X2)-GTR.ONLY
VERSE 1 (REPEAT ABOUT 20 TIMES)
FILL    (X1)
VERSE 2 (X7)
VERSE 1 (X2)
VERSE 1 (X6)
THAT'S IT.PEACE"""
Comments