Blood Brothers - Love Rhymes With Hideous Car Weck Chords & Tabs

 

Love Rhymes With Hideous Car Weck Chords & Tabs

Blood Brothers Chords & Tabs

Version: 1 Type: Tab 0 ratings
1 star 2 stars 3 stars 4 stars 5 stars
comments

Love Rhymes With Hideous Car Weck Tab

   
Tabbed By:nothing2noone
Tuning:Standard

Intro
e|--------------------------------------------------------------------------|
B|--------------------------------------------------------------------------|
G|--------------------------------------------------------------------------|
D|--------------------------------------------------------------------------|
A|-6-66-65\-----------------6-66-6-5\---------------------------------------|
E|-------------3-33-33-33-3-------------------------------------------------|

Verse    those tire tracks, zig zag you torso...
e|---------------------------------------------------------------------------|
B|---------------------------------------------------------------------------|
G|---------------------------------------------------------------------------|
D|---------5---------5---------55555555--------------------------------------|
A|-6666656---5555555---6666656----------5-----(Repeat until chorus)----------|
E|---------------------------------------------------------------------------|

Chorus          Love, love, love...
e|--------------------------------------------------------------------------|
B|--------------------------------------------------------------------------|
G|-----------------------------------------------------------5--------------|
D|-------------------------------------------------------5-6----------------|
A|-6-66-65-55-53-33-31~----6-66-65-55-53-33-3531~---------------------------|
E|--------------------------------------------------------------------------|

Verse      And as you touch her and feel her,...
e|---------------------------------------------------------------------------|
B|---------------------------------------------------------------------------|
G|---------------------------------------------------------------------------|
D|---------5---------5---------55555555--------------------------------------|
A|-6666656---5555555---6666656----------5----(Repeat until break)------------|
E|---------------------------------------------------------------------------|
[ Tab from: http://www.guitartabs.cc/tabs/b/blood_brothers/love_rhymes_with_hideous_car_weck_tab.html ]
Break       And back at the hospital...
e|----3---1---3---3---------------------------------------------------------|
B|----3---1---3---3---------------------------------------------------------|
G|----3---2---3---3---------------------------------------------------------|
D|----5---3---5---5---------------------------------------------------------|
A|--------------------------------------------------------------------------|
E|--------------------------------------------------------------------------|

Screaming part    She met him a week after you left her...
e|--------------------------------------------------------------------------|
B|--------------------------------------------------------------------------|
G|--------------------------------------------------------------------------|
D|--------------------------------------------------------------------------|
A|----------------(repeat 8 times-------------------------------------------|
E|-3332-5556-65-----on 5th time hold the 6)---------------------------------|

Chorus     Love, love, love...
e|--------------------------------------------------------------------------|
B|--------------------------------------------------------------------------|
G|--------------------------------------------------------------------------|
D|--------------------------------------------------------------------------|
A|--6-----5-----3-----1-------X2--------------------------------------------|
E|--------------------------------------------------------------------------|

Outro   the last time they play the chorus
e|--------------------------------------------------------------------------|
B|--------------------------------------------------------------------------|
G|--------------------------------------------------------------------------|
D|--------------------------------------------------------------------------|
A|-66666666-55555555-33333333-11111111-00000000000000000--------------------|
E|--------------------------------------------------------------------------|

| /  slide up
| \  slide down
| h  hammer-on
| p  pull-off
| ~  sustain
| +  harmonic
| x  Mute note
===============================================================================
Comments