Blood Brothers - Crimes Chords & Tabs

 

Crimes Chords & Tabs

Blood Brothers Chords & Tabs

Version: 1 Type: Tab 0 ratings
1 star 2 stars 3 stars 4 stars 5 stars
comments

Crimes Tab

Verse:

E ---------------------------------------|
B --8-10-11----8-10-11----11-10-8---8--7-|
G 00-0--0--------------------------8--7--|
D -----------00-0--0---------------------|
A ----------------------66--6--6---------|
E ---------------------------------------|

Chorus:
[ Tab from: http://www.guitartabs.cc/tabs/b/blood_brothers/crimes_tab.html ]
E ------------------------|
B ------------------------|
G 7-----------------------|
D 5-----77-8~ 7~---7------|
A -5-55-55-6~ 5~ 8-5-8-5~-|
E -3-33----------6---6-3~-|

E -----------------------|
B -----------------------|
G 7----------------------|
D 5-----10-8 7~---7------|
A -5-55--8-6-5~ 8-5-8-5~-|
E -3-33---------6---6-3~-|
Comments