Blood Brothers - Cecilia And The Silhouette Saloon Chords & Tabs

 

Cecilia And The Silhouette Saloon Chords & Tabs

Blood Brothers Chords & Tabs

Version: 1 Type: Bass Tab

Cecilia And The Silhouette Saloon Bass Tab

Artist: The Blood Brothers
Song: Cecilia And The Silhoutte Saloon

use a distortion pedal

 PLAY THIS PART 5 TIMES!  (only on the first time)(12)
G--8----------8------------8-----------8----------(12)---------8-------------------------|
D---10-10-10---10-10-10-----10-10-10----10-10-10-----10-10-10---10-10-10-----------------|
A-10---------10----------10----------10----------10-----------10--------10-8-10-8-6-6-8--|
E--------------------------------------------------------------------------------8-8-----|
                                                     (1:51)
G-----------    ------------------------------------------------------|
D-----------    ------5-----5-------5-----5---------------------------|
A-3h66------ 7x --3h6--3-3h6-6-3h66--3h6-6-3-----------3h66-3-6-6-----| 7x
E-----------    ------------------------------------------------------|
[ Tab from: http://www.guitartabs.cc/tabs/b/blood_brothers/cecilia_and_the_silhouette_saloon_btab.html ]
G---------------------------------------------------|
D---------------------------------------------------|
A-------10~-----10~-----10h------10-----------10-6--|
E------------------------------------------8--------|
      (2:01)  (2:18)   (2:30)   (2:38)  (2:42)(2:46)

 (3:19)  2 times
G--8----------8------------8-----------8----------(12)---------8-------------------------|
D---10-10-10---10-10-10-----10-10-10----10-10-10-----10-10-10---10-10-10-----------------|
A-10---------10----------10----------10----------10-----------10--------10-8-10-8-6-6-8--|
E--------------------------------------------------------------------------------8-8-----|

G------------------------------------------------------------------------------|
D--------5-------5------5--------5-----------------5---------------------------|
A-3h6-6-3-3-3h66--3-3h6--3-66-3h6-3-66-6-3h66-3h66--3h66-3-66-36-3-66-3-6------|
E------------------------------------------------------------------------------|

G-16-------|
D-15-------|
A-14-------|
E-13-------|