Blondie - Tide Is High Chords & Tabs

 

Tide Is High Chords & Tabs

Blondie Chords & Tabs

Version: 1 Type: Bass Tab 0 ratings
1 star 2 stars 3 stars 4 stars 5 stars
comments

Tide Is High Bass Tab

The Tide is High - Blondie
(J.Holt) 

Intro bass riff, right after the drums.


G|-------------------------------------------------
D|-------4----------4------------------------------
A|----2----2-----2-----2-------------2-------0-4---
E|-------------------------0-0-0-0-4------1--------
               

G|-------------------------------------------------
D|-------4----------4-----2--2---------------------
A|----2----2----2-2---2----------------------------
E|------------------------------2--2/--------------

[ Tab from: http://www.guitartabs.cc/tabs/b/blondie/tide_is_high_btab.html ]
G|-------------------------------------------------
D|-------4----------4------------------------------
A|----2----2----2-2---2------------2-----------0-4-
E|-----------------------0-0-0-0-4----1-1-1-1------


G|-------------------------------------------------
D|---------4----------4----------------------------
A|----2222---2----2-2---2---7--7---9--9------------
E|-------------------------------------------------



I just got my bass about 3-4 weeks ago, so I'm not even sure why I thought I could do this. 
The Tide is High has a fun sounding bass line, I thought I'd give it a shot.
Unfortunatly this is as far as I got before I realized I was completely tone deaf. 
So feel free to add on, or just plain start a-new to out do mine. 
suggest's go to: Cas-Cos@juno.com
Comments