Blondie - Maria Chords & Tabs

 

Maria Chords & Tabs

Blondie Chords & Tabs

Version: 2 Type: Tab 0 ratings
1 star 2 stars 3 stars 4 stars 5 stars
comments

Maria Tab

intro
E||--------------------------|--------------------------|--------------------------| 
B||--------------------------|--------------------------|--------------------------| 
G||--------------------------|--------------------------|--------------------------| 
D||--2--2--2--2--2--2--2--2--|--------------------------|--------------------------| 
A||--0--0--0--0--0--0--0--0--|--7--7--7--7--7--7--7--7--|--4--4--4--4--4--4--4--4--| 
E||--------------------------|--4--4--4--4--4--4--4--4--|--2--2--2--2--2--2--2--2--|


--------------------------|--------------------------|--------------------------| 
--------------------------|--------------------------|--------------------------| 
--------------------------|--------------------------|--------------------------| 
--------------------------|--------------------------|--9--9--9--9--9--9--9--9--| 
--2--2--2--2--2--2--2--2--|--7--7--7--7--7--7--7-----|--7--7--7--7--7--7--7--7--| 
--0--0--0--0--0--0--0--0--|--5--5--5--5--5--5--5--0--|--------------------------| 
                                                       
                                                       Verse:
--------------------------|--------------------------||---------------------------| 
--------------------------|--------------------------||---------------------------| 
--------------------------|--------------------------||*--------------------------| 
--7--7--7--7--7--7--7--7--|--7--7--7--7-----7-----7--||*--2--2--2--2--2--2--2--2--| 
--5--5--4--5--5--5--4--5--|--5--5--4--5--5--5--5--5--||---0--0--0--0--0--0--0--0--| 
--------------------------|--------------------------||---------------------------| 


--------------------------|--------------------------|--------------------------| 
--------------------------|--------------------------|--------------------------| 
--------------------------|--------------------------|--------------------------| 
--------------------------|--------------------------|--7--7--7--7--7--7--7--7--| 
--2--2--2--2--2--2--2--2--|--4--4--4--4--4--4--4--4--|--5--5--5--5--5--5--5--5--| 
--0--0--0--0--0--0--0--0--|--2--2--2--2--2--2--2--2--|--------------------------| 


--------------------------|--------------------------|--------------------------| 
--------------------------|--------------------------|--------------------------| 
--------------------------|--------------------------|--------------------------| 
--2--2--2--2--2--2--2-----|--------------------------|--7--7--7--7--7--7--7--7--| 
--0--0--0--0--0--0--0-----|--2--2--2--2--2--2--2--2--|--4--5--5--5--4--5--5--5--| 
-----------------------0--|--0--0--0--0--0--0--0--0--|--------------------------|


---------------------------||---------------------------|--------------------------| 
---------------------------||---------------------------|--------------------------| 
--------------------------*||*--------------------------|--------------------------| 
--7--7--7--7--7--7--7--7--*||*--7--7--7--7--7--7--7--7--|--9--9--9--9--9--9--9--9--| 
--4--5--5--5--4--5--5--5---||---5--5--5--5--5--5--5--5--|--7--7--7--7--7--7--7--7--| 
---------------------------||---------------------------|--------------------------| 


----------------------------------|-----------------------------------|| 
----------------------------------|-----------------------------------|| 
----------------------------------|----------------------------------*|| 
--11--11--11--11--11--11--11--11--|--11--11--11--11--11--11--11--11--*|| 
--9---9---9---9---9---9---9---9---|--9---9---9---9---9---9---9---9----|| 
----------------------------------|-----------------------------------|| 

Refrain:
---------------------------|--------------------------|-------------------------| 
---------------------------|--------------------------|-----------------7----7--| 
*--------------------------|--------------------------|--------6--------6----6--| 
*--------------------------|--------------------------|--4--4--4--4--4--4----4--| 
---7--7--7--7--7--7--7--7--|--7--7--7--7--7--7--7--7--|-------------------------| 
---5--5--5--5--5--5--5--5--|--4--4--4--4--4--4--4--4--|-------------------------| 


--------2--------2----2--|--------------------------|--------------------------| 
--------3--------3----3--|--------------------------|--------------------------| 
--2--2--2--------2----2--|--2--2--2--2--2--2--2--2--|--------------------------| 
--0--0--0--0--0--0----0--|--2--2--2--2--2--2--2--2--|--2--2--2--2--2--2--2--2--| 
-------------------------|--0--0--0--0--0--0--0--0--|--2--2--2--2--2--2--2--2--| 
-------------------------|--------------------------|--0--0--0--0--0--0--0--0--| 


-------------------------|---------------------------||---------------------------| 
-------------------------|---------------------------||---------------------------| 
-------------------------|--------------------------*||*--------------------------| 
-------0--0-----0--0-----|--0--0-----0--0-----0--0--*||*--2--2--2--2--2--2--2--2--| 
--4b---------4b-------4b-|--------4b-------4b--------||---0--0--0--0--0--0--0--0--| 
-------------------------|---------------------------||---------------------------|


--------------------------|--------------------------|--------------------------| 
--------------------------|--------------------------|--------------------------| 
--------------------------|--------------------------|--------------------------| 
--------------------------|--------------------------|--7--7--7--7--7--7--7--7--| 
--2--2--2--2--2--2--2--2--|--4--4--4--4--4--4--4--4--|--5--5--5--5--5--5--5--5--| 
--0--0--0--0--0--0--0--0--|--2--2--2--2--2--2--2--2--|--------------------------|


--------------------------|--------------------------|-------------------------| 
--------------------------|--------------------------|-------------------------| 
--------------------------|--------------------------|-------------------------| 
--2--2--2--2--2--2--2-----|--------------------------|-------0--0-----0--0-----| 
--0--0--0--0--0--0--0-----|--2--2--2--2--2--2--2--2--|--4b---------4b-------4b-| 
-----------------------0--|--0--0--0--0--0--0--0--0--|-------------------------|


---------------------------||--------------------------|--------------------------| 
---------------------------||--------------------------|--------------------------| 
--------------------------*||--------------------------|--------------------------| 
--0--0-----0--0-----0--0--*||--7--7--7--7--7--7--7--7--|--9--9--9--9--9--9--9--9--|
--------4b-------4b--------||--5--5--5--5--5--5--5--5--|--7--7--7--7--7--7--7--7--| 
---------------------------||--------------------------|--------------------------|


----------------------|--------------------------|--------------------------| 
------9h10-----9------|--12\-----10----9---------|--------------------------| 
------9-11-----9/-----|--13------11----9------9--|--------------------------| 
----------------------|-------------------11-----|--7--7--7--7--7--7--7--7--| 
----------------------|--------------------------|--5--5--5--5--5--5--5--5--| 
----------------------|--------------------------|--------------------------|


--------------------------|----------------------|-------------------------| 
--------------------------|------9h10-----9------|--10------10-------------| 
--------------------------|------9-11-----9/-----|--11------11----9--------| 
--9--9--9--9--9--9--9--9--|----------------------|-------------------11----| 
--7--7--7--7--7--7--7--7--|----------------------|-------------------------| 
--------------------------|----------------------|-------------------------| 

|------------------------|-----------------------|-------------------------| 
|------------------------|-----------------------|-------------------------| 
|*-----------------------|-----------------------|-------------------------| 
|*------------------2----|--2/4---------------2--|--2/4---2----------------| 
|-------0----0-2/4-------|-------------2/4-------|--------------2/4--2--0--| 
|------------------------|-----------------------|-------------------------| 

[ Tab from: http://www.guitartabs.cc/tabs/b/blondie/maria_tab_ver_2.html ]
------------------|----------------------|------------------------| 
------------------|----------------------|------------------------| 
------------------|----------------------|------------------------| 
------------------|-----------------2----|--2/4---2---------------| 
------------------|------0----0/-4-------|--------------2/4--2----| 
------------------|----------------------|------------------------|

-------------------------|---------------------------||---------------------------| 
-------------------------|---------------------------||---------------------------| 
-------------------------|--------------------------*||*--------------------------| 
-------0--0-----0--0-----|--0--0-----0--0-----0--0--*||*--7--7--7--7--7--7--7--7--| 
--4b---------4b-------4b-|--------4b-------4b--------||---5--5--5--5--5--5--5--5--| 
-------------------------|---------------------------||---------------------------|


--------------------------|----------------------------------| 
--------------------------|----------------------------------| 
--------------------------|----------------------------------| 
--9--9--9--9--9--9--9--9--|--11--11--11--11--11--11--11--11--| 
--7--7--7--7--7--7--7--7--|--9---9---9---9---9---9---9---9---| 
--------------------------|----------------------------------|


----------------------------------|--------------------------| 
----------------------------------|--------------------------| 
----------------------------------|--------------------------| 
--11--11--11--11--11--11--11--11--|--2--2--2--2--2--2--2--2--| 
--9---9---9---9---9---9---9---9---|--0--0--0--0--0--0--0--0--| 
----------------------------------|--------------------------|


--------------------------|--------------------------|--------------------------| 
--------------------------|--------------------------|--------------------------| 
--------------------------|--------------------------|--------------------------| 
--------------------------|--------------------------|--7--7--7--7--7--7--7--7--| 
--2--2--2--2--2--2--2--2--|--4--4--4--4--4--4--4--4--|--5--5--5--5--5--5--5--5--| 
--0--0--0--0--0--0--0--0--|--2--2--2--2--2--2--2--2--|--------------------------|


--------------------------|--------------------------|-------------------------| 
--------------------------|--------------------------|-------------------------| 
--------------------------|--------------------------|-------------------------| 
--2--2--2--2--2--2--2-----|--------------------------|-------0--0-----0--0-----| 
--0--0--0--0--0--0--0-----|--2--2--2--2--2--2--2--2--|--4b---------4b-------4b-| 
-----------------------0--|--0--0--0--0--0--0--0--0--|-------------------------|
 
--------------------------|-------------------|------------------| 
--------------------------|-------------------|------------------| 
--------------------------|-------------------|------------------| 
--0--0-----0--0-----0--0--|--0----------------|------------------| 
--------4b-------4b-------|-------------------|------------------| 
--------------------------|-------------------|------------------|


|------------------------|-----------------------|-------------------------| 
|------------------------|-----------------------|-------------------------| 
|*-----------------------|-----------------------|-------------------------| 
|*------------------2----|--2/4---------------2--|--2/4---2----------------| 
|-------0----0-2/4-------|-------------2/4-------|--------------2/4--2--0--| 
|------------------------|-----------------------|-------------------------|


------------------|----------------------|------------------------| 
------------------|----------------------|------------------------| 
------------------|----------------------|------------------------| 
------------------|-----------------2----|--2/4---2---------------| 
------------------|------0----0/-4-------|--------------2/4--2----| 
------------------|----------------------|------------------------|


-------------------------|---------------------------||
-------------------------|---------------------------||
-------------------------|--------------------------*||
-------0--0-----0--0-----|--0--0-----0--0-----0--0--*||
--4b---------4b-------4b-|--------4b-------4b--------||
-------------------------|---------------------------||

solo
--------------------|---------------------------|-----------------------------| 
--------------x--x--|--9h10-----10~----------9--|--10p-9--10p-9---------------| 
--------------x--x--|--9-11-----11~---9--11-----|----------------11--9\-8--9p-| 
--------------------|---------------------------|-----------------------------| 
--------------------|---------------------------|-----------------------------| 
--------------------|---------------------------|-----------------------------|


---------------------|---------------------------|-----------------------| 
---------------------|---------------------------|-----------------------| 
--8------------------|--------2--4--4b-4h2-4--2--|--4b-2-----------------| 
-----9----9~---------|----2/4--------------------|--------4------2-------| 
---------------------|---------------------------|--------------------2--| 
---------------------|---------------------------|-----------------------|


------------------------|----------------------|------------------------| 
------------------------|----------------------|------------------------| 
------------------------|----------------------|--------4--4-------4----| 
------------------------|----------------------|--4h-6----------4--4----| 
----0--2b---2--0-----0--|--2~---------2--4/-6--|----------------6-------| 
------------------2-----|----------------------|------------------------|


--------------------------|---------------------------||---------------------------| 
--------------------------|------9--x--x--9--x--9--9--||---------------------------| 
--------7-----9h-7--------|------9--x--x--9--x--9--9--||*--------------------------| 
--------------------------|------9--x--x--9--x--9--9--||*--------------------------| 
--7/-9-----9----------10/-|--11-----------------------||---7--7--7--7--7--7--7--7--| 
--------------------------|---------------------------||---5--5--5--5--5--5--5--5--|


--------------------------|-------------------------|--------2--------2----2--| 
--------------------------|-----------------7----7--|--------3--------3----3--| 
--------------------------|--------6--------6----6--|--2--2--2--------2----2--| 
--------------------------|--4--4--4--4--4--4----4--|--0--0--0--0--0--0----0--| 
--7--7--7--7--7--7--7--7--|-------------------------|-------------------------| 
--4--4--4--4--4--4--4--4--|-------------------------|-------------------------|


--------------------------|--------------------------|-------------------------| 
--------------------------|--------------------------|-------------------------| 
--2--2--2--2--2--2--2--2--|--------------------------|-------------------------| 
--2--2--2--2--2--2--2--2--|--2--2--2--2--2--2--2--2--|-------0--0-----0--0-----| 
--0--0--0--0--0--0--0--0--|--2--2--2--2--2--2--2--2--|--4b---------4b-------4b-| 
--------------------------|--0--0--0--0--0--0--0--0--|-------------------------|


---------------------------||--------------------------|--------------------------|
---------------------------||--------------------------|--------------------------| 
--------------------------*||--------------------------|--------------------------| 
--0--0-----0--0-----0--0--*||--7--7--7--7--7--7--7--7--|--9--9--9--9--9--9--9--9--| 
--------4b-------4b--------||--5--5--5--5--5--5--5--5--|--7--7--7--7--7--7--7--7--| 
---------------------------||--------------------------|--------------------------|


----------------------------------|----------------------------------| 
----------------------------------|----------------------------------| 
----------------------------------|----------------------------------| 
--11--11--11--11--11--11--11--11--|--11--11--11--11--11--11--11--11--| 
--9---9---9---9---9---9---9---9---|--9---9---9---9---9---9---9---9---| 
----------------------------------|----------------------------------|


--------------------------|--------------------------|--0------| 
--------------------------|--------------------------|--2------| 
--------------------------|--------------------------|--2------| 
--7--7--7--7--7--7--7--7--|--9--9--9--9--9--9--9--9--|--2------|
--5--5--5--5--5--5--5--5--|--7--7--7--7--7--7--7--7--|--0------|
Comments