Blondie - Maria Intro Solo Chords & Tabs

 

Maria Intro Solo Chords & Tabs

Blondie Chords & Tabs

Version: 1 Type: Tab 0 ratings
1 star 2 stars 3 stars 4 stars 5 stars
comments

Maria Intro Solo Tab

   
##################################################################################
# This file is the author's own work and represents their interpretation of the  #
# song. You may only use this file for private study, scholarship, or research.  #
##################################################################################

Artist: Blondie
Song: Maria
Tabbed by: robertio 

b = bend (up or down)
r = release (from bend)
p = pull-off
h = hammer-on
P.H. = pinch harmonic

Intro

E|----------------------------------------------------------------------------------------|
B|----------------------------------------------------------------------------------------|
G|----------------------------------------------------------------------------------------|
D|----------------------------------------------------------------------------------------|
A|-7-7-7---7-7-7---7-7---7-7-7---7-7-7---7-7---4-4-4---4-4-4---4-4---2-2-2---2-2-2---2-2--|
E|-5-5-5---5-5-5---5-5---4-4-4---4-4-4---4-4---2-2-2---2-2-2---2-2---0-0-0---0-0-0---0-0--|
[ Tab from: http://www.guitartabs.cc/tabs/b/blondie/maria_intro_solo_tab.html ]
E|----------------------------------------------------------------------------------------|
B|----------------------------------------------------------------------------------------|
G|----------------------------------------------------------------------------------------|
D|-----------------------9-9-9---9-9-9---9-9---7-7-7---7-7-7---7-7---7-7-7---7-7-7---7-7--|
A|-7-7-7---7-7-7---7-7---7-7-7---7-7-7---7-7---5-5-5---5-5-5---5-5---5-5-5---5-5-5---5-5--|
E|-5-5-5---5-5-5---5-5--------------------------------------------------------------------|


Solo

      F#m                                    B
E|---------------------------------------------------|
B|-9h10--9h10--------9-10p9-10p9---------------------|
G|-9h11--9h11--9--11--------------11-9-8h9-8---------|
D|--------------------------------------------9------|
A|---------------------------------------------------|
E|---------------------------------------------------|
      E               F#m                   B
E|-------------------P.H.----------------------------|
B|--------------------4------------------------------|
G|----2----4b5r4-4----4-2----------------------------|
D|-2h4----4--------4------4--2-----------------------|
A|-----------------------------2-0-2b3r2-0----2------|
E|-----------------------------------------2---------|
                                   D                  E
E|----------------------------------------------------------------|
B|------------------------------------7----------------9---9slide0|
G|--------------4-4-----6p4-----------7----9p7---------9---9slide0|
D|---------4--6------6-------5slide7--7-7------7slide9-9-x-9slide0|
A|-4slide6--------------------------------------------------------|
E|----------------------------------------------------------------|
Comments