Blondie - Maria Chords & Tabs

 

Maria Chords & Tabs

Blondie Chords & Tabs

Version: 2 Type: Bass Tab 0 ratings
1 star 2 stars 3 stars 4 stars 5 stars
comments

Maria Bass Tab

Song tittle: Marķa
Band: Blondie
Album: No exit

Transcribed by: Sergio Enrico

If you have any correction or comments, please, e-mail me: sergioenrico@yahoo.com

Standard Tuning(EADG)

  Intro                                                                   
G||-------------|
D||-----4-------|
A||-5-7---7-5-7-|
E||-------------|

  Verse                       
G||-------------------------------------------------------------------|
D||----------------6-9------------------------------------------------|
A||-0--0-0-------7-------------5--5-5--0--0-0----------5--5-5--5--5-5-|
E||---------0--0-------2--2-2------------------0--0-0-----------------|

Pre-Chorus
G||-----------------------------------------------------|
D||-------------------------4-4---4-4---4--4-6-7-6-4----|
A||-5-5---5-5---7-7---7-7-4-----4-----4--------------7--|
E||-----5-----7-----7-----------------------------------|

[ Tab from: http://www.guitartabs.cc/tabs/b/blondie/maria_btab_ver_2.html ]
Chorus
G||------------------------------------------------------------------|
D||------------------------------------------------------------------|
A||-0-0-0-0-0-0-0-0---------------------------------5-5-5-5-5-5-5-5--|
E||-----------------0-0-0-0-0-0-0-0-2-2-2-2-2-2-2-2------------------|

|------------------------------------------------------------------|
|------------------------------------------------------------------|
|-0-0-0-0-0-0-0-0-----------------5-5-5-5-5-5-5-5-5-5-5-5-5-5-5-5--|
|-----------------0-0-0-0-0-0-0-0----------------------------------|

Guitar solo
G||------------------------------------------------------------------|
D||------------------------------------------------------------------|
A||-2--2-2--2--2-2------------------2--2-2--2--2-2--5--5-5--7--7-7---|
E||-----------------2--2-2--2--2-2-----------------------------------|



Song Structure:
Intro (x1)
Verse (x2)
Pre-chorus (x2)
Chorus (x2)
Verse (x2)
Pre-chorus (x2)
Chorus (x2)
Pre-chorus (x2)
Verse (x2)
         Drums
Chorus (x2)
Pre-chorus (x2)
Guitar solo (x1)
Chorus (fade out)    
Comments