Blondie - Dreaming Chords & Tabs

 

Dreaming Chords & Tabs

Blondie Chords & Tabs

Version: 1 Type: Tab 0 ratings
1 star 2 stars 3 stars 4 stars 5 stars
comments

Dreaming Tab

   
Band Name: Blondie
Song Name: Dreaming
Tabbed By: Terry Sims (Masterofdarknes)
Email: Floyd_Fan89@teenspot.com
[ Tab from: http://www.guitartabs.cc/tabs/b/blondie/dreaming_tab.html ]
e -----------------------|
B --2--3-----2--3--5--3--|
G --2--2-----O--O--O--O--|
D --0--------0-----------|
A -----------------------|
E -----------------------|
    D        G

Intro/verse riff

e --2-----------------------3--------------|
B --3-----------------------3--------------|
G --2--4--2--O--------------O--------O-----|
D --O------------4p--2p--O--O--O--2-----2--|
A --------------------------2--------------|
E --------------------------3--------------|
Comments