Bloc Party - Two More Years Chords & Tabs

 

Two More Years Chords & Tabs

Bloc Party Chords & Tabs

Version: 1 Type: Tab 0 ratings
1 star 2 stars 3 stars 4 stars 5 stars
comments

Two More Years Tab

intro: guitar 2- palm mute with pedol

E:--------------------------------------------------|
B:--------------------------------------------------|
G:--------------------------------------------------|
D:---5-5-5-5-5-5-5-5-5-5-5-5-5-5-5-5-5-5-5-5-5-5-5--|
A:---7-7-7-7-7-7-7-7-7-7-7-7-7-7-7-7-7-7-7-7-7-7-7--|
E:--------------------------------------------------|


verse: guitar 2 plays the same as the intro with the effects pedol

guitar 1:
[ Tab from: http://www.guitartabs.cc/tabs/b/bloc_party/two_more_years_tab.html ]
E:-1---1---1---1-------|---------------------------------|
B:-1---3---1---3---1---|------1-------1------------------|
G:-2---2---2---2---2---|--3---2---3---2---3---3---3---3--|
D:-----------------3---|--3---3---3---3---3---3---3---3--|
A:---------------------|--1-------1-------1---1---1---1--|
E:---------------------|---------------------------------|


chorus: both guitars i think:

E:----------------------------------------------------------------------------------|
B:----------------------------------------------------------------------------------|
G:---7---9---10---12----------------------------------------------------------------|
D:---7---9---10---12----------------------------------------------------------------|
A:---5---7---8----10----------------------------------------------------------------|
E:----------------------------------------------------------------------------------|

thats prity much it i think
Comments