Bloc Party - Storm And Stress Acoustic Chords & Tabs

 

Storm And Stress Acoustic Chords & Tabs

Bloc Party Chords & Tabs

Version: 1 Type: Tab

Storm And Stress Acoustic Tab

   
Bloc Party
Storm and Stress (Acoustic)
Tuned 1/2 Step Down

This song can be found on the Silent Alarm Remixed Bonus Disc along with an acoustic
version of Plans. The bridge is the only questionable part. Maybe let the high e and
b strings ring open to fill it in a bit. Otherwise, this tab sounds fine to me.
Questions/Comments - jonlynch02@yahoo.com

Updated 8-27-06: Corrected Main Riff (thanks to ~Coxy~) and Chorus.

Intro/Verse “Promise you’ll stay...”
Guitar 1
eb|---------------------------------|
Bb|---------------------------------|
Gb|---------------------------------|
Db|---------------------------------|
Ab|---------------------------------|
Eb|-(5)~-----------(2)~-------------|

Guitar 2
eb|---------------------------------|
Bb|---------0---------------0-------|
Gb|-----2-----2---2-----2-----2---2-|
Db|---2---2-----2-----2---2-----2---|
Ab|-0-------------------------------|
Eb|-----------------2---------------|

Chorus “You drink to laugh...”
Guitar 1
eb|------------------------|
Bb|------------------------|
Gb|------------------------|
Db|------------------------|
Ab|------5~----------7~----|
Eb|-2~----------5~---------|
[ Tab from: http://www.guitartabs.cc/tabs/b/bloc_party/storm_and_stress_acoustic_tab.html ]
Guitar 2
eb|------------------------|
Bb|------------------------|
Gb|---6--6-7-6----6--6-7-6-|
Db|-7-----------7----------|
Ab|------------------------|
Eb|------------------------|

Bridge “You’re not always right...”
Both Guitars
eb|---------------------------------|
Bb|-7-7-7-7-7-7-7-7-----------------|
Gb|-6-6-6-6-6-6-6-6-6-6-6-6-6-6-6-6-|
Db|-7-7-7-7-7-7-7-7-7-7-7-7-7-7-7-7-|
Ab|-5-5-5-5-5-5-5-5-7-7-7-7-7-7-7-7-|
Eb|-----------------5-5-5-5-5-5-5-5-|

“You’re not always.”
Guitar 2
eb|-----------------------------------------|
Bb|-----------------------------------------|
Gb|-7-7-7-7-9-9-9-9-11-11-11-11-14-14-14-14-|
Db|-0-0-0-0-0-0-0-0--0--0--0--0--0--0--0--0-|
Ab|-----------------------------------------|
Eb|-----------------------------------------|

End
Guitar 1
eb|-------------------------------|
Bb|-------------------------------|
Gb|-------------------------------|
Db|-------------------------------|
Ab|-------------------------------|
Eb|-5~------------2~--------------|

Guitar 2
eb|---------------------------------0~~~-|
Bb|---------0---------------0-------0~~~-|
Gb|-----2-----2---2-----2-----2---2-2~~~-|
Db|---2---2-----2-----2---2-----2---2~~~-|
Ab|-0------------------------------------|
Eb|-----------------2--------------------|