Bloc Party - Skeleton Chords & Tabs

 

Skeleton Chords & Tabs

Bloc Party Chords & Tabs

Version: 1 Type: Tab 0 ratings
1 star 2 stars 3 stars 4 stars 5 stars
comments

Skeleton Tab

Woooo! Looks like I'm the first guy to tab this amazing
virtually un-heard of song by Bloc Party! This is 
probabaly their best song, in my opinion!

Here we go....

The Intro:


Guitar 1:

e|----5h6p5-----5h6p5----------------|
B|---------------------6-------------|
G|-----------------------------------|
D|-----------------------------------|
A|-----------------------------------|
E|-----------------------------------|

Guitar 2:

e|----5---5------5---5---5-----------|
B|--6---6---5------------------------|
G|-------------5---5---5---5---------|
D|-----------------------------------|
A|-----------------------------------|
E|-----------------------------------|

Bridge:


Guitar 1:
[ Tab from: http://www.guitartabs.cc/tabs/b/bloc_party/skeleton_tab.html ]
e|----5h6p5-----5h6p5----------------|
B|---------------------6-------------|
G|-----------------------------------|
D|-----------------------------------|
A|-----------------------------------|
E|-----------------------------------|

Guitar 2:

e|------------8---------------8------|
B|--------6-------6-------6-----6----|
G|------5---5---5-------5---5--------|
D|-----------------------------------|
A|----5---------------5--------------|
E|-----------------------------------|


Chorus: (the insanely fast crazy bit)

Guitar 1:

e|---5---5---------------------------|
B|---5h6-5-5-5-6-S-1010-88-66-55-----|
G|---------5-------------------------|
D|-----------------------------------|
A|-----------------------------------|
E|-----------------------------------|

Guitar 2: who cares about bleeding guitar 2.

There we go 

Enjoy!

Tabbed by none other then the amazing Chris Pinchbeck
Comments