Bloc Party - Shes Hearing Voices Chords & Tabs

 

Shes Hearing Voices Chords & Tabs

Bloc Party Chords & Tabs

Version: 1 Type: Bass Tab 0 ratings
1 star 2 stars 3 stars 4 stars 5 stars
comments

Shes Hearing Voices Bass Tab

   
-------------------------------------------------------------------------------
			     She's Hearing Voices - Bloc Party
-------------------------------------------------------------------------------

Tabbed By : imessyou
e-mail: jimmyloo78@hotmail.com

This is a pretty simple song bass wise. Listen to the track for the rhythm of the riffs 
the main riff is a bit dodgy

Tuning: standard

Verse
G|--------------------------------------------------------------------------|
D|--------------------------------------------------------------------------|
A|--5-5-5---5---5-----------------------------------------------------------|
E|--------------------------------------------------------------------------|

"She got a red pill blue pill..."
G|--------------------------------------------------------------------------|
D|--------------------------------------------------------------------------|
A|--5-5-5---5---5---7-7-7---7---7-------------------4-4-4---4---4-----------|
E|----------------------------------6-6-6---6---6---------------------------|

Breakdown
G|--------------------------------------------------------------------------|
D|---------------------------------12-12-12---12---12-----------------------|
A|-5-5-5---5---5---5-5-5---5---5--------------------------------------------|
E|--------------------------------------------------------------------------|
[ Tab from: http://www.guitartabs.cc/tabs/b/bloc_party/shes_hearing_voices_btab.html ]
After the breakdown is played the bass just stays on top D and sometimes a small flick 
added at the end
G|--------------------------------------------------------------------------|
D|-12-12-12---12---12---12-12-12---12---12---12-12--10----------------------|
A|-----------------------------------------------------12-------------------|
E|--------------------------------------------------------------------------|

Verse
G|--------------------------------------------------------------------------|
D|--------------------------------------------------------------------------|
A|-5-5-5---5---5------------------------------------------------------------|
E|--------------------------------------------------------------------------|

Guitar Solo
G|--------------------------------------------------------------------------|
D|--------------------------------------------------------------------------|
A|-5-5-5---5---5---7-7-7---7--7---------------------------------------------|
E|--------------------------------6-6-6---6---6---3-3-3---3---3-------------|

G|--------------------------------------------------------------------------|
D|--------------------------------------------------------------------------|
A|--------------------------------------------------------------------------|
E|--------------------------------------------------------------------------|


| /  slide up
| \  slide down
| h  hammer-on
| p  pull-off
| ~  vibrato
| +  harmonic
| x  Mute note
Comments