Bloc Party - Positive Tension Chords & Tabs

 

Positive Tension Chords & Tabs

Bloc Party Chords & Tabs

Version: 1 Type: Bass Tab 0 ratings
1 star 2 stars 3 stars 4 stars 5 stars
comments

Positive Tension Bass Tab

-----------------------------------------------------------------------------
     POSITIVE TENSION - Bloc Party
-----------------------------------------------------------------------------

Tabbed By : Daft_evader
e-mail: Daft_evader[at]hotmail[dot]com

Tuning: Standard (EADG)

This is the main bass riff that runns through most of the song, listen to pick up the rhythm.

G|---------------------------------------------------------------------------|
D|---------------------------------------------------------------------------|
A|-3---3-----1-3---1-3---------3---1-3---------------------------------------|
E|---------3-----------------------------------------------------------------|

At 2:34 (as Kele sings 'the reckoning') The bass stops and rests for 8 lines. The bass 
comes back in with:

[ Tab from: http://www.guitartabs.cc/tabs/b/bloc_party/positive_tension_btab.html ]
G|----------------------------------------------------------------------------|
D|----------------------------------------------------------------------------|
A|-3-3-3----------------------5-5-5-5-----------------------------------------|
E|---------3-3-3---4-4-4--1-1-------------------------------------------------|


This riff is played 8 times until 3:22(Kele sings 'so fucking useless').

Then play the following (i cant be bothered to count the notes so just listen for the chord changes):

G|---------------------------------------------------------------------------|
D|---------------------------------------------------------------------------|
A|-3>>----------------------5---5------3>>--------1>>-3>>--------------------|
E|---------3>>---4>>-1>>-------------------3>>-4>>---------------------------|

Finnish with the main riff 4 more times.
Comments