Bloc Party - Plans Chords & Tabs

 

Plans Chords & Tabs

Bloc Party Chords & Tabs

Version: 1 Type: Bass Tab 0 ratings
1 star 2 stars 3 stars 4 stars 5 stars
comments

Plans Bass Tab

   
-------------------------------------------------------------------------------
			     Plans - Bloc Party
-------------------------------------------------------------------------------

Tabbed By : imessyou
e-mail: theblochead@hotmail.co.uk

Tuning: standard EADG

Bass tumps in at 0:13 

Verse
"Wake up dreamer..."
G|---------------|---------------|---------------|---------------|
D|7-7-7-7-7-7-7-7|---------------|8-8-8-8-8-8-8-8|7-7-7-7-7-7-7-7|
A|---------------|8-8-8-8-8-8-8-8|---------------|---------------|
E|---------------|---------------|---------------|---------------|

Fourth time through verse
"Stop being so laissez-faire..."
G|---------------|---------------|-----------------------|---------------|
D|7-7-7-7-7-7-7-7|---------------|-----------------------|7-7-7-7-7-7-7-7|
A|---------------|8-8-8-8-8-8-8-8|10-10-10-10-10-10-10-10|---------------|
E|---------------|---------------|-----------------------|---------------|

Bit between verses (let ring)
G|-------|
D|7-5-7-7|
A|-------|
E|-------| 

Verse
"Been training vipers to come for you..."
G|---------------|---------------|---------------|---------------|
D|7-7-7-7-7-7-7-7|---------------|8-8-8-8-8-8-8-8|7-7-7-7-7-7-7-7|
A|---------------|8-8-8-8-8-8-8-8|---------------|---------------|
E|---------------|---------------|---------------|---------------|

Fourth time through verse
"And the ravens are leaving the tower..."
G|---------------|---------------|-----------------------|---------------|
D|7-7-7-7-7-7-7-7|---------------|-----------------------|7-7-7-7-7-7-7-7|
A|---------------|8-8-8-8-8-8-8-8|10-10-10-10-10-10-10-10|---------------|
E|---------------|---------------|-----------------------|---------------|

Chorus
"I've got a taste for blood..."
G|---------------|---------------|-----------------|---------------|
D|---------------|---------------|-----------------|---------------|
A|5-5-5-5-5-5-5-5|---------------|-----------------|---------------|
E|---------------|8-8-8-8-8-8-8-8|6-6-6-6-6-6-6-6-6|6-6-6-6-6-6-6-6|
[ Tab from: http://www.guitartabs.cc/tabs/b/bloc_party/plans_btab.html ]
Verse
"Wake up sleepyhead..."
G|---------------|---------------|---------------|---------------|
D|7-7-7-7-7-7-7-7|---------------|8-8-8-8-8-8-8-8|7-7-7-7-7-7-7-7|
A|---------------|8-8-8-8-8-8-8-8|---------------|---------------|
E|---------------|---------------|---------------|---------------|

Fourth time through verse
"Stop being so laissez-faire..."
G|---------------|---------------|-----------------------|---------------|
D|7-7-7-7-7-7-7-7|---------------|-----------------------|7-7-7-7-7-7-7-7|
A|---------------|8-8-8-8-8-8-8-8|10-10-10-10-10-10-10-10|---------------|
E|---------------|---------------|-----------------------|---------------|

Chorus
"I've got a taste for blood..."
G|---------------|---------------|---------------|---------------|
D|------------7--|------------7--|------------5--|------------5--|
A|5-5-5-5-5-8---8|--------7-8---8|----------8---8|----------8---8|
E|---------------|8-8-8-8--------|6-6-6-6-6------|6-6-6-6-6------|

Bridge
G|-9-10----|-9-10--12--10-|
D|---------|--------------|
A|---------|--------------|
E|---------|--------------|

Solo/Harmony
G|---------------|---------------|---------------|---------------|
D|---------------|---------------|---------------|---------------|
A|0-0-0-0-0-0-0-0|---------------|1-1-1-1-1-1-1-1|0-0-0-0-0-0-0-0|
E|---------------|1-1-1-1-1-1-1-1|---------------|---------------|X4

G|---------------|---------------|---------------|---------------|
D|---------------|---------------|5-5-5-5-5-5-5-5|---------------|
A|5-5-5-5-5-5-5-5|7-7-7-7-7-7-7-7|---------------|8-8-8-8-8-8-8-8|
E|---------------|---------------|---------------|---------------|

Keep playing this note (G) till the song ends
G|---------------------------------------------------------------------------|
D|-5-5-5-5-5-5-5-5-5------------------------------------------------------------------|
A|---------------------------------------------------------------------------|
E|---------------------------------------------------------------------------|

| /  slide up
| \  slide down
| h  hammer-on
| p  pull-off
| ~  vibrato
| +  harmonic
| x  Mute note
===============================================================================
Comments