Bloc Party - Luno Chords & Tabs

 

Luno Chords & Tabs

Bloc Party Chords & Tabs

Version: 1 Type: Bass Tab 0 ratings
1 star 2 stars 3 stars 4 stars 5 stars
comments

Luno Bass Tab

----------------------------------------------------------------------------
			     Luno - Bloc Party
----------------------------------------------------------------------------

Tabbed By : imessyou
e-mail: jimmyloo78@hotmail.com

Tuning: standard

This is a pretty simple song. The rhythm is pretty straightforward aswell
Intro and verse:
G|--------------------------------------------------------------------------|
D|--------------------------------------------------------------------------|
A|----------------------------------5555555555555555------------------------|
E|-77777777777777777777777777777777------------------7777777777777777-------|

Chorus
"And your nose is bleeding..."
G|-----------------------------------------------------------------------------------|
D|-----------------------------------------------------------------------------------|
A|10-10-10-9-99999999999-10-10-10-9-99999999999-10-10-10-9-99999999999---------------|
E|--------------------------------------------------------------------77777 777------|

Back to verse riff
G|--------------------------------------------------------------------------|
D|--------------------------------------------------------------------------|
A|----------------------------------5555555555555555------------------------|
E|-77777777777777777777777777777777------------------7777777777777777-------|

Chorus
"And you nose is bleeding..."
G|-----------------------------------------------------------------------------------|
D|-----------------------------------------------------------------------------------|
A|10-10-10-9-99999999999-10-10-10-9-99999999999-10-10-10-9-99999999999---------------|
E|--------------------------------------------------------------------77777 777------|
[ Tab from: http://www.guitartabs.cc/tabs/b/bloc_party/luno_btab.html ]
Bridge riff
"Come back to me the way you were..."
G|--------------------------------------------------------------------------|
D|--------------------------------------------------------------------------|
A|-2-2-------5-5-5-------7-7-7-------10-10-10-------------------------------|
E|-----2-2-2-------5-5-5-------7-7-7----------10-10--5----------------------|

Back to verse riff
G|--------------------------------------------------------------------------|
D|--------------------------------------------------------------------------|
A|----------------------------------5555555555555555------------------------|
E|-77777777777777777777777777777777------------------7777777777777777-------|

Chorus
"And you nose is bleeding..."
G|-----------------------------------------------------------------------------------|
D|-----------------------------------------------------------------------------------|
A|10-10-10-9-99999999999-10-10-10-9-99999999999-10-10-10-9-99999999999---------------|
E|--------------------------------------------------------------------77777 777------|

Bridge riff
"Come back to me the way you were..."
G|--------------------------------------------------------------------------|
D|--------------------------------------------------------------------------|
A|-2-2-------5-5-5-------7-7-7-------10-10-10-------------------------------|
E|-----2-2-2-------5-5-5-------7-7-7----------10-10--5----------------------|

Ending
G|--------------------------------------------------------------------------|
D|--------------------------------------------------------------------------|
A|--------------------------------------------------------------------------|
E|--7777777777777777777777777777777777777777777777777-----------------------|

There it is. Great song, please rate
Comments