Bloc Party - Little Thoughts Chords & Tabs

 

Little Thoughts Chords & Tabs

Bloc Party Chords & Tabs

Version: 1 Type: Tab 0 ratings
1 star 2 stars 3 stars 4 stars 5 stars
comments

Little Thoughts Tab

   
-------------------------------------------------------------------------------
			     Little Thoughts - Bloc party
-------------------------------------------------------------------------------
Tabbed by:Jack D 
Email:Park_punk@hotmail.com

Tuning:Standard
Ok so here is some riffs of little thoughts. It is mainly the second guitar
part as i am having trouble in hearing the first. I have written the rhythms out
for each riff as it is easy enough to do that yourselves.
[ Tab from: http://www.guitartabs.cc/tabs/b/bloc_party/little_thoughts_tab.html ]
guitar 1 intro
e|---------------------------------------------------------------------------|
B|---------------------------------------------------------------------------|
G|-9-9-99--------------------------------------------------------------------|
D|-9-9-99--------------------------------------------------------------------|
A|-7-7-77--------------------------------------------------------------------|
E|---------------------------------------------------------------------------|
guitar 2 intro/ verse 1     verse 2 
e|-------------|--------------------------7----------------------------------|
B|-------------|--------------------------7----------------------------------|
G|--8-8--88----|--------------------------8----------------------------------|
D|--9-9--99----|-------------------------------------------------------------|
A|--7-7--77----|-------------------------------------------------------------|
E|-------------|-------------------------------------------------------------|
guitar 1 main riff
e|---------------------------------------------------------------------------|
B|---------------------------------------------------------------------------|
G|---------------------------------------------------------------------------|
D|-99999999-9999--99999999-99999999------------------------------------------|
A|-77777777-9999-------------------------------------------------------------|
E|----------------99999999-77777777------------------------------------------|
guitar 1 chorus ?
e|---------------------------------------------------------------------------|
B|---------------------------------------------------------------------------|
G|---------------------------------------------------------------------------|
D|---------------------------------------------------------------------------|
A|---------------------------------------------------------------------------|
E|---------------------------------------------------------------------------|
guitar 2 chorus
e|---------------------------------------------------------------------------|
B|----------------------------------10s12-12-12------------------------------|
G|-----88-9-------11-11-11-11--8888-------------99-11-11-11-11---------------|
D|9999------9-999------------------------------------------------------------|
A|---------------------------------------------------------------------------|
E|---------------------------------------------------------------------------|

e|---------------------------------------------------------------------------|
B|-----000------------12-12--------000------12121212-------------------------|
G|8888-999-9s11-11-11-------9-8888-999-9s11-11111111-------------------------|
D|---------------------------------------------------------------------------|
A|---------------------------------------------------------------------------|
E|---------------------------------------------------------------------------|

e|---------------------------------------------------------------------------|
B|-------------------------------------10s12-12----10s12-12------------------|
G|-----------------88---88----------------------99---------99-9h11p9---------|
D|99----99------------99----99--9h11p9---------------------------------------|
A|--77----77-7h9p7-----------------------------------------------------------|
E|---------------------------------------------------------------------------|

e|---------------0-0-0-0-0-0-------------------------------------------------|
B|-10s12-12-12-sb101010101010------------------------------------------------|
G|---------------------------------------------------------------------------|
D|---------------------------------------------------------------------------|
A|---------------------------------------------------------------------------|
E|---------------------------------------------------------------------------|
Guitar 2 Bridge 
e|---------------------------------------------------------------------------|
B|---------------------------------------------------------------------------|
G|9999-1111-13131313-14-13-11-9999-1111-6666-9999-1111-13131313-14-13-11-2121|
D|---------------------------------------------------------------------------|
A|7777-9-9--11111111-12-11-9--7777-9-9--4444-7777-9-9--11111111-12-11-9--1919|
E|---------------------------------------------------------------------------|
Outro chorus for second guitar 
e|------------------------|--------------------------------------------------|
B|-10-9-7---10-9-7-9------|-10s12-10---10s12-10------10----------------------|
G|--------9---------------|----------9----------9h11-------------------------|
D|------------------------|--------------------------------------------------|
A|------------------------|--------------------------------------------------|
E|------------------------|--------------------------------------------------|

e|---------------0-0-0-0-0-0-------------------------------------------------|
B|-10s12-12-12-sb101010101010------------------------------------------------|
G|---------------------------------------------------------------------------|
D|---------------------------------------------------------------------------|
A|---------------------------------------------------------------------------|
E|---------------------------------------------------------------------------|
Comments