Bloc Party - Little Thoughts Chords & Tabs

 

Little Thoughts Chords & Tabs

Bloc Party Chords & Tabs

Version: 1 Type: Bass Tab 0 ratings
1 star 2 stars 3 stars 4 stars 5 stars
comments

Little Thoughts Bass Tab

   
-------------------------------------------------------------------------------
			     Little Thoughts - Bloc Party
-------------------------------------------------------------------------------

Tabbed By : imessyou
e-mail: theblochead@hotmail.co.uk

Tuning: Standard bruv

This is a bangin tune

Bass don't kick in til 0:20
Intro sorta bit
G|----------------|---------------|
D|----------------|---------------|
A|-4-4-4-4-4-4-4-4|4-4-4-4-4------|
E|----------------|----------4-4-4|

Proper verse
"I've been thinking little thoughts..."
G|---------------|---------------|---------------|---------------|
D|---------------|---------------|---------------|---------------|
A|---------------|---------------|4-4-4-4-4-4-4-4|4-4-4-4-4------|
E|0-0-0-0-0-0-0-0|0-0-0-0-0-2-2-2|---------------|----------4-4-4|

Chorus
"I'll go back, if you ask me..."
G|----------------|---------------|---------------|---------------|
D|----------------|---------------|---------------|---------------|
A|----------------|---------------|---------------|---------------|
E|-2-2-2-2-2-2-2-2|4-4-4-4-4-4-4-4|5-5-5-5-5-5-5-5|5-5-5-5-5-5-5-5|

Chorus cont
G|---------------|---------------|---------------|---------------|
D|---------------|---------------|---------------|---------------|
A|4-4-4-4-4-4-4-4|---------------|---------------|---------------|
E|---------------|7-7-7-7-7-7-7-7|5-5-5-5-5-5-5-5|5-5-5-5-5-5-5-5|

Chorus cont
G|-----------|-----------|------|----------|----------------|
D|-----------|-----------|------|----------|----------------|
A|-------4-4-|-------6-6-|----6-|----------|----------------|
E|-2-2-------|-4-4-------|4-4---|5-5---0-0-|-5-5--0-5--5-7-5|

Chorus cont
G|-----------|-----------|-------|----------|----------------|
D|-----------|-----------|-------|----------|----------------|
A|-4-4-------|-2-2-------|-2-2---|----------|----------------|
E|-------4-4-|-------2-2-|-----2-|-5-5---0-0|-5-5--0-5--5-7-5|

Verse
"If its 'cos my age then you're a coward..."
G|---------------|---------------|---------------|---------------|
D|---------------|---------------|---------------|---------------|
A|---------------|---------------|4-4-4-4-4-4-4-4|4-4-4-4-4------|
E|0-0-0-0-0-0-0-0|0-0-0-0-0-2-2-2|---------------|----------4-4-4|

Chorus
"I'll go back, if you ask me..."
G|----------------|---------------|---------------|---------------|
D|----------------|---------------|---------------|---------------|
A|----------------|---------------|---------------|---------------|
E|-2-2-2-2-2-2-2-2|4-4-4-4-4-4-4-4|5-5-5-5-5-5-5-5|5-5-5-5-5-5-5-5|
[ Tab from: http://www.guitartabs.cc/tabs/b/bloc_party/little_thoughts_btab.html ]
Chorus cont
G|---------------|---------------|---------------|---------------|
D|---------------|---------------|---------------|---------------|
A|4-4-4-4-4-4-4-4|---------------|---------------|---------------|
E|---------------|7-7-7-7-7-7-7-7|5-5-5-5-5-5-5-5|5-5-5-5-5-5-5-5|

Chorus cont
G|-----------|-----------|------|----------|----------------|
D|-----------|-----------|------|----------|----------------|
A|-------4-4-|-------6-6-|----6-|----------|----------------|
E|-2-2-------|-4-4-------|4-4---|5-5---0-0-|-5-5--0-5--5-7-5|

Chorus cont
G|-----------|-----------|-------|----------|----------------|
D|-----------|-----------|-------|----------|----------------|
A|-4-4-------|-2-2-------|-2-2---|----------|----------------|
E|-------4-4-|-------2-2-|-----2-|-5-5---0-0|-5-5--0-5--5-7-5|

Bridge
G|---------------|
D|---------------|
A|7-7-7-7-7-7-7-7|
E|---------------| X8 (on 8th bar slide up to 9th fret if you want to)

Solo
G|---------------|---------------|---------------|---------------|
D|---------------|---------------|---------------|---------------|
A|---------------|---------------|4-4-4-4-4-4-4-4|4-4-4-4-4------|
E|0-0-0-0-0-0-0-0|0-0-0-0-0-2-2-2|---------------|----------4-4-4|

Chorus
"I'll go back, if you ask me..."
G|----------------|---------------|---------------|---------------|
D|----------------|---------------|---------------|---------------|
A|----------------|---------------|---------------|---------------|
E|-2-2-2-2-2-2-2-2|4-4-4-4-4-4-4-4|5-5-5-5-5-5-5-5|5-5-5-5-5-5-5-5|

Chorus cont
G|---------------|---------------|---------------|---------------|
D|---------------|---------------|---------------|---------------|
A|4-4-4-4-4-4-4-4|---------------|---------------|---------------|
E|---------------|7-7-7-7-7-7-7-7|5-5-5-5-5-5-5-5|5-5-5-5-5-5-5-5|

Chorus cont (take note-different here)
G|----------------|-----------------------|-----------------------|-----------------------|
D|----------------|-----------------------|-----------------------|-----------------------|
A|-9-9-9-9-9-9-9-9|11-11-11-11-11-11-11-11|12-12-12-12-12-12-12-12|12-12-12-12-12-12-12-12|
E|----------------|-----------------------|-----------------------|-----------------------|

Chorus cont (take note-different here)
G|-----------------------|---------------|-----------------------|-----------------------|
D|11-11-11-11-11-11-11-11|9-9-9-9-9-9-9-9|-----------------------|-----------------------|
A|-----------------------|---------------|12-12-12-12-12-12-12-12|12-12-12-12-12-12-12-12|
E|-----------------------|---------------|-----------------------|-----------------------|

Ending (Take note-this bit has a dodge time signature)
Add fills
G|---------|------|-------|-----|--|
D|---------|------|-------|-----|--|
A|---------|------|4-4-4-4|2-2-2|--|
E|-2-2-2-2-|3-3-3-|-------|-----|--|
For the end it just slows down but play something along the lines of this

| /  slide up
| \  slide down
| h  hammer-on
| p  pull-off
| ~  vibrato
| +  harmonic
| x  Mute note
===============================================================================
Comments